Oops, an error
Loading. Please wait.

The Road Home To Panther Creek Tab

version 3
version 3

Whole song

Interactive

259 views 1 this week
no commentswrite comment
1 2 3 4 5
2 more votes to show rating
add to favorites
launch autoscroll
font size
0
reset
how to read this tab
guitar tuner
Autoscroll
slow
fast
+/-
esc
set tempo
stop
Help us to improve Ultimate-Guitar.com Take our survey!
×
Difficulty
Tuning
intermediate
D A D G B E


      So yeah yeah It's my first tab and I'm pretty certain it's more accurate then the
one's on here. I didn't specify what guitars playing what, i just went with what i heard
but I could work on it later if needed and i could also work on the solo later. For now 
try it out and let me know what i could fix.

. = palm mute
* = pinch harmonic
( )= let ring
~ = vibrato

E---------------------------------------------------------------|
B---------------------------------------------------------------|
G---------------------------------------------------------------|
D---0-0-0-0----8-7--5-3---------------8-7--5-3------------------|
A---0-0-0-0--00-0-00-0-00-3/5-3p0---00-0-00-0-00-3/5-5----------|
D---0-0-0-0-----------------------------------------------------|
    . . . .  .. . .. . ..           .. . .. . ..     *


E---------------------------------------------------------------|
B---------------------------------------------------------------|
G---------------------------------------------------------------|
D-------8-7--5-3---------------8-7--5-3-------------------------|
A-----00-0-00-0-00-3/5-3p0---00-0-00-0-00-3/5-5-----------------|
D---------------------------------------------------------------|
      .. . .. . ..           .. . .. . ..     *


E---------------------------------------------------------------|
B---------------------------------------------------------------|
G---------------------------------------------------------------|
D-------8-7--5-3---------------8-7--5-3-------------------------|
A-----00-0-00-0-00-3/5-3p0---00-0-00-0-00-3/5-5-----------------|
D---------------------------------------------------------------|
     .. . .. . ..           .. . .. . ..     *


E---------------------------------------------------------------|
B---------------------------------------------------------------|
G---------------------------------------------------------------|
D-------8-7--5-3---------------8-7--5-3-------------------------|
A-----00-0-00-0-00-3/5-3p0---00-0-00-0-00-3/5-5-----------------|
D---------------------------------------------------------------|
      .. . .. . ..           .. . .. . ..     *


E------------------------------------------------------------------|
B------------------------------------------------------------------|
G------------------------------------------------------------------|
D--7--(7)--7--(7)--5--(5)--5--(5)--7--(7)--7--(7)--5--(5)--5--(5)--|
A--5--(5)--7--(7)--3--(3)--5--(5)--5--(5)--7--(7)--3--(3)--5--(5)--|
D----------7--(7)----------5--(5)----------7--(7)----------5--(5)--|

E---------------------------------------------------------------|
B---------------------------------------------------------------|
G---------------------------------------------------------------|
D---------------------------0-0000|0000|0000|00-----------------|
A---0/5-5-5-3p0-------------0-0000|0000|0000|00-----------------|
D---------------0/5-5-5-3---0-0000|0000|0000|00-----------------|
                              .... .... .... ..    (REPEAT x7)


E---------------------------------------------------------------|
B---------------------------------------------------------------|
G---------------------------------------------------------------|
D-------------------------------6530-(0)-0000|0000|0000-70------|
A---0/5-5-5-3p0-----------------6530-(0)-0000|0000|0000-50------|
D---------------0/5-5-5-3-(3)---6530-(0)-0000|0000|0000--0------|
                                         .... .... ....


E---------------------------------------------------------------|
B---------------------------------------------------------------|
G---------------------------------------------------------------|
D--0000|0000|00-6530-(0)-0000|0000|0000-70-0000|0000|00-6530-(0)|
A--0000|0000|00-6530-(0)-0000|0000|0000-50-0000|0000|00-6530-(0)|
D--0000|0000|00-6530-(0)-0000|0000|0000--0-0000|0000|00-6530-(0)|
   .... .... ..          .... .... ....    .... .... ..


E----------------------------------------------------------------------|
B----------------------------------------------------------------------|
G----------------------------------------------------------------------|
D----------------------------------------------------------------0-(0)-|
A----------------------------------------------------------------0-(0)-|
D--050305030506530-050305030506530-050305030506530-050305030506530-(0)-|


E--------------------------------------------------------------------|
B--------------------------------------------------------------------|
G--------------------------------------------------------------------|
D-------------------------------------------------0/6-5-3-0-(0)------|
A-------------------------------------------------0/6-5-3-0-(0)--5~--|
D----0/6-5-3-0-(0)--0/6-5-3-0-(0)--0/6-5-3-0-(0)--0/6-5-3-0-(0)------|
                                                   ^REPEATx17^   ^
                                                    over solo    ^
                                                                 ^
*Listen for the D note on the 5th string shortly at the end of the last open*
Suggest correction
Give kudos to tab author, rate the tab!
1 2 3 4 5
comments
print report bad tab
guest
You may want to rate the tab now too:
select rating
Wanna post a correction for this tab? Suggest correction