Oops, an error
Loading. Please wait.

Tough As John Jacobs Tab

version 1
version 1

Whole song

Interactive

9,920 views 3 this week
12 commentsread comments
1 2 3 4 5
x 12
add to favorites
launch autoscroll
font size
0
reset
how to read this tab
guitar tuner
Autoscroll
slow
fast
+/-
esc
set tempo
stop
Help us to improve Ultimate-Guitar.com Take our survey!
×
Author
Difficulty
Tuning
novice
D A D G B E
Band-Maylene and the sons of disaster
Song-Tough as John Jacobs

Intro
and verse 1
Guitar 1
|--------------------------------------------------------------------------|
|--------------------------------------------------------------------------|
|---3/5-0-5-0--------------------------------------------------------------|
|---3/5-0-5-0--------------------------------------------------------------|
|--------------------------------------------------------------------------|
|--------------------------------------------------------------------------|
 
verse 1
Guitar 2
|--------------------------------------------------------------------------|
|--------------------------------------------------------------------------|
|--------------------------------------------------------------------------|
|--5050--00---00---00---5050-----------------------------------------------|
|--5050--00---00---00---5050-----------------------------------------------|
|--5050--00---00---00---5050-----------------------------------------------|

Chorus
|--------------------------------------------------------------------------|
|--------------------------------------------------------------------------|
|--------------------------------------------------------------------------|
|-5------8------0----3----0---------3-0-3-5--------------------------------|
|-5-X6---8--X6--0-X6-3-X6-0-X4------3-0-3-5--------------------------------|
|-5------8------0----3----0---------3-0-3-5--------------------------------|

Verse 2
both guitars
|--------------------------------------------------------------------------|
|--------------------------------------------------------------------------|
|--------------------------------------------------------------------------|
|-3/-55-5-----------------------------------3551---------------------------|
|-3/-55-5--X3-then---Then the last 1 its----3551---------------------------|
|-3/-55-5-----------------------------------3551---------------------------|


you play that basically till end. then play intro
Suggest correction
comments
print report bad tab
12 comments total. Showing first comments.
0 reply
nilnoc23 10 Apr 29, 2006 10:39 AM

completely wrong

0 reply
wakeboarder 50 May 02, 2006 08:54 PM

completely WRONG!!! you tried though....

0 reply
The Hunter 10 May 06, 2006 03:01 AM

This tab blows..Sorry man.

guest
You may want to rate the tab now too:
select rating
Wanna post a correction for this tab? Suggest correction