Oops, an error
Loading. Please wait.

Tough As John Jacobs Tab

version 2
version 2

Whole song

Interactive

5,309 views 1 this week
2 commentsread comments
1 2 3 4 5
worth learning
x 6
add to favorites
launch autoscroll
font size
0
reset
how to read this tab
guitar tuner
Tab Pro tools
  • play this tab
  • loop segment
  • change instrument
  • show fretboard
  • metronome
×
Best way to learn
"Tough As John Jacobs"
Autoscroll
slow
fast
+/-
esc
set tempo
stop
Contributor
Difficulty
Tuning
intermediate
D A D G B E
Tabbed by: Matt Wilham

Tuning: Drop D

i know they have 3 guitarists, but i'll just tab it out for one 

intro
e|------------------------------------------------------|
B|------------------------------------------------------|
G|-3/5-0-5-0---3/5-0-5-0------0---3/5-0-5-0-------------|
D|-3/5-0-5-0---3/5-0-5-0--3b5-0---3/5-0-5-0--5555555----|
A|-------------------------------------------5555555----|
D|-------------------------------------------5555555----|
                                             .......

verse x4
e|-------------------------------|
B|-------------------------------|
G|-------------------------------|
D|-3/5-3-3/5---------------------|
A|-1/3-1-1/3--55555555555--------|
D|------------55555555555--------|
       .      ...........

play this, then the verse again 
e|-------------------------|
B|-------------------------|
G|-------------------------|
D|-3/5-555-----------------|
A|-1/3-333-555555555555----|
D|---------555555555555----|
           ............    

chorus x4                                   end w/ this
e|-----------------------------------------|------------|
B|-----------------------------------------|------------|
G|-----------------------------------------|------------|
D|--------------------------333-5-3--------|------------|
A|-----------55555--3333333-111-3-1-0--555-|--0-3-00----|
D|-0h3p0h3p0-55555--3333333---------0--555-|--0-3-00----|
                                              . . ..

breakdown 1 x2
e|------------------------------|
B|------------------------------|
G|------------------------------|
D|------------------------------|
A|-3/555-3/555-3/555-3/55-1~----|
D|-3/555-3/555-3/555-3/55-1~----|
   
breakdown 2 x2
e|---------------------------------------|
B|---------------------------------------|
G|---------------------------------------|
D|--------------------------------530----|
A|------875------53-------531------------|
D|-5555-----3333---5-1111-----3333-------|
    ...      ...      ...      ...

play chorus (without the 0h3p0h3p0 first)

e|------------------------------------------------------|
B|------------------------------------------------------|
G|-------------|3/5-0-5-0~-|x3|-------------------------|
D|--3/5-3/5----|3/5-0-5-0~-|x3|-------------------------|
A|--1/3-1/3-5~-------------------5555555----------------|
D|----------5~-------------------5555555----------------|
                                 .......

this part x8
e|------------------------------------------------------|
B|------------------------------------------------------|
G|------------------------------------------------------|
D|-3/5-3-3/5--------------------------------------------|
A|-1/3-1-1/3-5-555-555----------------------------------|
D|-----------5-555-555----------------------------------|
       .       ... ...   

play chorus, then breakdown 1

end on this
e|---------------|
B|---------------|
G|---------------|
D|---------5*----|
A|-3/5-5-0-------|
D|-3/5-5-0-------|
         .
comments
print report bad tab
2 comments total.
0 reply
!normajean! wrote on May 23 2007, 01:31 pm

pretty good tab. 4 stars. keep it up.

0 reply
dom_james wrote on November 10 2008, 07:34 pm

does anyone know the bass to this song?

I want to post or [tab]
guest
You may want to rate the tab now too:
select rating
Please do not post tabs as comments. Select "correction" instead!