Oops, an error
Loading. Please wait.

503 Tab

version 1
version 1

Whole song

728 views 6 this week
4 commentsread comments
1 2 3 4 5
2 more votes to show rating
add to favorites
launch autoscroll
font size
0
reset
how to read this tab
guitar tuner
Autoscroll
slow
fast
+/-
esc
set tempo
stop
Help us to improve Ultimate-Guitar.com Take our survey!
×
Author
5:03
Mayonnaise

Tuning:Eb

Intro: C#m B A E

after 2x of chord pattern:
e|-----5/7-------------------7-7/9-7------------|
B|-4-5-----4h5-4---------4-5---------5-7/9-7-5--|
G|---------------6-4-4h6------------------------|
D|----------------------------------------------|
A|----------------------------------------------|
E|----------------------------------------------|

Verse 1: C#m B A E
I'ts a friday afternoon
I was talking with you
You cried cause of me
And I'm very sorry
I just wanna tell you
The whole truth
I just wanna be
Honest with you

Refrain: F#m A F#m A-B
I hope someday you'll realize
My love for you is real

Chorus: E A
Fly away with me and
Share your life with me and
                  C#m
Never forget the love
B    A
We shared

Intro

Verse 2:
Yesterday I needed you
Yesterday you cried
And yesterday you needed me
Today I'll die
How can it be
So sad but true
All the lies I kept
Are also within you

Refrain

Chorus

Adlib: C#m B A E

Refrain

Chorus (2x)

C#m  B    A
Love we shared

tabbed by: Antonin Deala
email: antonindeala@yahoo.com

I love you Aerese!
Suggest correction
Give kudos to tab author, rate the tab!
1 2 3 4 5
comments
print report bad tab
4 comments total. Showing first comments.
0 reply
dousdevineleech 31 Nov 26, 2006 08:08 AM

mali tab mo boi... ganito!!!... TUNING: Half step
----------------------------------|
----------------------------------|
-8s999-8888-6666-4444-------------|
-8s999-9999-7777-4444-------------|
-6s777-7777-5555-2222-------------|
----------------------------------|

-------7--------------------------|
----------------------------------|
-8s999-8888-6666-4444-------------|
-8s999-9999-7777-4444-------------|
-6s777--777-5555-2222-------------|
----------------------------------|
tpos refrain ala B na chord
F#m A F#m A..
then Chorus:
E F#m A2(3x) C#m B A2.. di mxado rinig ung F#m s chorus.. pero kng papakinggan mo maiigi meron..

e2 solo: |-----------w/ wah wah-------------------|
---------|--------------------------------------------|
---------|-11s14-12--9h10-9---------------9h12p9------|
-----9\--|-----------------9-----9-9--9h11------11-9--|
-9h11----|-------------------9h11---------------------|
---------|--------------------------------------------|
---------|--------------------------------------------|

---------------------------------------------------------|
-------------9-12-9----------12-10-9-10-9-10-9-9-10h12---|
-----9-9-9h11------11-9-11-9--------------------------9--|
-9h11----------------------------------------------------|
---------------------------------------------------------|
---------------------------------------------------------|

---------------------------------------------------------|
-------------9-12-9----------12-12-10-10-99-10-10-9-9----|
-----9-9-9h11------11-9-11-9---------------------11-11-9-|
-9h11----------------------------------------------------|
---------------------------------------------------------|
---------------------------------------------------------|

|---------2x-------|
---------------------------------------------------------|
---------9h12p9----------------------10\-----------------|
-----9h11------11-9---------9-------9--------------------|
-9h11-------------------9h11-11-9h11---------------------|
---------------------------------------------------------|
---------------------------------------------------------|
yan... email nyo nlng kung mali... kidd05_bb@yahoo

0 reply
dousdevineleech 31 Nov 26, 2006 08:11 AM

tama adlib mo sa una... mali ung chords mo... e2 nlagyan ko na ng solo... ok lng yan dude...

+1 reply
dousdevineleech 31 Nov 26, 2006 08:13 AM

ung chords sa verse... kapaerho ng sa intro... try mu nlng ung tab na bingay ko... email mo ko mali... oh kaya post k nlng dito...

guest
You may want to rate the tab now too:
select rating
Wanna post a correction for this tab? Suggest correction