Oops, an error
Loading. Please wait.

Bakit Part 1 Tab

version 3
version 3

Whole song

724 views 1 this week
no commentswrite comment
1 2 3 4 5
please rate
add to favorites
launch autoscroll
font size
0
reset
how to read this tab
guitar tuner
Tab Pro tools
  • play this tab
  • loop segment
  • change instrument
  • show fretboard
  • metronome
×
Best way to learn
"Bakit Part 1"
Autoscroll
slow
fast
+/-
esc
set tempo
stop
Contributor
Band / Artist : MAYONNAISE      
Song title : BAKIT PART 1
ALBUM : MAYONNAISE





TABBED BY: ANDRES D.              Nonong_18@hotmail.com




INTRO 1:
 


GUITAR 1: isang strum lang
        
e---3--------------------------|
b---0--------------------------|
g---4--------------------------| 2x
D---5--------------------------|
A---5--------------------------|
E------------------------------|

Guitar 2: 

   3x                              2x     
e-------------------------------------------|
b-------------------------------------------|
g--7-------/11-11---/12--11---9-7--7--------| 
D--0-------/0--0----/0---0----0-0--0--------| 2x
A--5-------/9--9----/10--9----7-5--5--------|
E-------------------------------------------|




Guitar 1: isang strum lang
 
e--------3----------------3----------------|
b--------0----------------0----------------|
g--------5----------------4----------------| 2x
D--------5----------------5----------------|
A------------------------------------------|
E------------------------------------------|

Gitar 2: 
         3x                                       3x
e------------------------------------------------------------|
b------------------------------------------------------------|
g--------12-------/16--16----/17---16---14---12---12---------| 
D---------0-------/0----0----/0----0-----0----0----0---------|2x
A--------10-------/14--14----/15---14---12---10---10---------|
E-------------------------------------------------------------




Guitar 1:isang strum lang

e---3--------------------------|
b---0--------------------------|
g---4--------------------------| 2x
D---5--------------------------|
A---5--------------------------|
E------------------------------|

Guitar 2: 

   3x                              2x     
e-------------------------------------------|
b-------------------------------------------|
g--7-------/11-11---/12--11---9-7--7--------| 
D--0-------/0--0----/0---0----0-0--0--------| 2x
A--5-------/9--9----/10--9----7-5--5--------|
E-------------------------------------------|



Guitar 1:
e--------3----------------3----------------|
b--------0----------------0----------------|
g--------5----------------4----------------| 2x
D--------5----------------5----------------|
A------------------------------------------|
E------------------------------------------|

Guitar 2:

         3x                                       3x
e------------------------------------------------------------|
b------------------------------------------------------------|
g--------12-------/16--16----/17---16---14---12---12---------| 
D---------0-------/0----0----/0----0-----0----0----0---------|
A--------10-------/14--14----/15---14---12---10---10---------|
E-------------------------------------------------------------

         3x                      
e-----------------------------------------------0--------------------|
b-----------------------------------------------0--------------------|
g--------12-------/16--16----/17----19----------0--------------------| 
D---------0-------/0----0----/0------0--pause---0----19----------3---|end
A--------10-------/14--14----/15----17----------0----19-slide up-3---|
E-----------------------------------------------0----19----------3---/




VERSE 1:


GUITAR 1:

         
e---3-----3---3-----5----5-----5-----7-----7-----7----5-----5------5---|
b---0-0----0--------0-0----0---------0-0-----0--------0-0-----0--------|
g---4---4---4-------0----------------0----------------0----------------| 2x
D---5---------------7--7-----7-------9---9-----9------7---7-----7------|
A---5---------------7----------------9----------------7----------------|
E----------------------------------------------------------------------|

GUITAR 2: POWER CHORDS isa isang strum lang

           
e--------------------------------------------------------------------|
b--------------------------------------------------------------------|
g--------------------------------------------------------------------| 2x
D---5---------------7---------------9-----------------7--------------|
A---0---------------0---------------0-----------------0--------------|
E---3---------------5---------------7-----------------5--------------|

Bakit pa, kailanagan kitang samahan?
Di ba pwedeng hindi nalang sumama?



CHORUS:

GUITAR 1
         
e--------------0---------5------5-------|
b--------8-8-------------7--7-----------|
g--------9---9-----------7----7---------| 3x
D--------9------------------------------|
A--------7------------------------------|
E---------------------------------------|

Bakit ba kailanagan,
Bakit nararamdaman,
Bakit tinatamaan, 

e--------3-----3---------5------5-------|
b--------0-0-------------7--7-----------|
g--------5---5-----------7----7---------|
D--------5------------------------------|
A---------------------------------------|
E---------------------------------------|

At bakit nasasaktan. 

GUITAR 2 power chords one strum lang each
            
e--------------------------------|
b--------------------------------|
g--------9--------------7--------| 3x 
D--------0--------------0--------|
A--------7--------------5--------|
E--------------------------------

Bakit ba kailanagan,
Bakit nararamdaman,
Bakit tinatamaan, 

e----------------------------------|
b----------------------------------|
g--------3---------------7---------| 
D--------0---------------0---------|
A--------5---------------5---------|
E----------------------------------

At bakit nasasaktan. 



ADLIB 1: same to INTRO



VERSE 2:

GUITAR 1:
         
e---3-----3---3-----5----5-----5-----7-----7-----7----5-----5------5---|
b---0-0----0--------0-0----0---------0-0-----0--------0-0-----0--------|
g---4---4---4-------0----------------0----------------0----------------| 2x
D---5---------------7--7-----7-------9---9-----9------7---7-----7------|
A---5---------------7----------------9----------------7----------------|
E----------------------------------------------------------------------|

GUITAR 2: POWER CHORDS isa isang strum lang

e--------------------------------------------------------------------|
b--------------------------------------------------------------------|
g--------------------------------------------------------------------| 2x
D---5---------------7---------------9-----------------7--------------|
A---0---------------0---------------0-----------------0--------------|
E---3---------------5---------------7-----------------5--------------|

Di ka ba nagsasawang kausap ko?
Pagod na pagod na pagod na ako sa'yo.



REpeat Chorus



ADLIB 2: I dont know the lead h

GUITAR 1:

        6x              6x
e------------------------5--------------|
b--------8---------------7--------------|
g--------9---------------7--------------| 3x
D--------9------------------------------|
A--------7------------------------------|
E---------------------------------------|
         6x              6x
e--------3---------------5--------------|
b--------0---------------7--------------|
g--------5---------------7--------------| 
D--------5------------------------------|
A---------------------------------------|
E---------------------------------------|

One strum lang each sa part na to

e---3---------------5----------------7----------------5----------------|
b---0---------------0----------------0----------------0----------------|
g---4---------------0----------------0----------------0----------------| 2x
D---5---------------7----------------9----------------7----------------|
A---5---------------7----------------9----------------7----------------|
E----------------------------------------------------------------------|


Verse 3

Guitar 1
                                     6x        6x
e---3-----3---3-----5----5-----5-----7---------5-------|
b---0-0----0--------0-0----0---------0---------0-------|
g---4---4---4-------0----------------0---------7-------| 2x
D---5---------------7--7-----7-------9---------7-------|
A---5---------------7----------------9-----------------|
E------------------------------------------------------|

Guitar 2
                                    6x         6x
e-------------------------------------------------------------|
b-------------------------------------------------------------|
g-------------------------------------------------------------| 2x
D---5---------------7---------------9----------7--------------|
A---0---------------0---------------0----------0--------------|
E---3---------------5---------------7----------5--------------|

Bakit pa? bakit ba? ayoko na..


LAST Chorus:

GUITAR 1
         6x            4x
e-----------------------5---777-666----------|
b--------8--------------7----------777-------|
g--------9--------------7--------------------| 2x
D--------9-----------------------------------|
A--------7-----------------------------------|
E--------------------------------------------|

         6x            4x
e-----------------------5-------------|
b--------8--------------7-------------|
g--------9--------------7-------------| 
D--------9----------------------------|
A--------7----------------------------|
E-------------------------------------|

Bakit ba kailanagan,
Bakit nararamdaman,
Bakit tinatamaan, 

         6x             6x
e--------3--------------5-------------|
b--------0--------------7-------------|
g--------5--------------7-------------|
D--------5----------------------------|
A-------------------------------------|
E-------------------------------------|

At bakit nasasaktaaaaaaaannnn


GUITAR 2 
 
        6x             4x   
e---------------------------777-666----------|
b-----------------------------------777------|
g--------9--------------7--------------------| 3x 
D--------0--------------0--------------------|
A--------7--------------5--------------------|
E--------------------------------------------

         6x             4x   
e----------------------------------------------------------|
b----------------------------------------------------------|
g--------9--------------7------brush down----/3------------| 3x 
D--------0--------------0--------then up-----/0------------|
A--------7--------------5-------------reach--/5------------|
E----------------------------------------------------------

Bakit ba kailanagan,
Bakit nararamdaman,
Bakit tinatamaan, 

          6x            6x
e---------------------------------|
b---------------------------------|
g---------3------------7----------| 
D---------0------------0----------|
A---------5------------5----------|
E---------------------------------

At bakit nasasaktaaaaaaaannnn



ENDING same to intro but this time guitar 1 is the same to guitar 2
comments
We did not receive enough feedback on this tab! Please rate:
print report bad tab
1 2 3 4 5
I want to post or [tab]
guest
You may want to rate the tab now too:
select rating
Please do not post tabs as comments. Select "correction" instead!