Oops, an error
Loading. Please wait.

Bakit Part 2 Bass Tab

version 2
version 2

Whole song

2,312 views 9 this week
no commentswrite comment
1 2 3 4 5
3 more votes to show rating
add to favorites
launch autoscroll
font size
0
reset
guitar tuner
Autoscroll
slow
fast
+/-
esc
set tempo
stop
Help us to improve Ultimate-Guitar.com Take our survey!
×
Band / Artist : MAYONNAISE
Song title : BAKIT PART 2
ALBUM : MAYONNAISE

TABBED BY : ANDRES D.           Nonong_18@hotmail.com


INTRO 1:

G|-------------------------------------------------|
D|-------------------------------------------------|
A|-1/7------------7--------5---------------5pause--|
D|-------------------------------------------------|


INTRO 2:

G|---------------------------------------------|
D|---------------------------------------------|2x
A|--------333333---/777777---555555--------0---|
D|-333333--------------------------------------|


VERSE:

G|---------------------------------------------|
D|---------------------------------------------|2x
A|--------333333---/777777---555555--------0---|
D|-333333--------------------------------------|

lumuha ka ng nagiisa, nakadungaw sa buwan.
Lumilipad ang isip ko,nakasabit sa ulap.


REFRAIN:

G|---------------------------------------------|
D|---------------------------------------------|2x
A|-333333333333---------555555-7777--999----0--|
D|-------------5555555-------------------------|

Ngunit bakit, pinilit, kung ayaw ko'ng masaktan?


CHORUS:

G|---------------------------------------------|
D|---------------------------------------------|2x
A|---------------------------------------------|
D|-333333--555555--777777----555555------------|

Sinabe ko sa kanya, na 'di parin nililikha ang katulad ko na parang timang, at 'di mo 
maintindihan.


ADLIB:

G|---------------------------------------------|
D|---------------------------------------------|2x
A|--------333333---/777777---555555--------0---|
D|-333333--------------------------------------|


VERSE 2:

G|---------------------------------------------|
D|---------------------------------------------|2x
A|--------333333---/777777---555555--------0---|
D|-333333--------------------------------------|

Malayo ang pagtitig mo, dala ng hangin.
Akala ko ay pwede pa na umasa sa iyo.


REFRAIN:

G|---------------------------------------------|
D|---------------------------------------------|2x
A|-333333333333---------555555-7777--999----0--|
D|-------------5555555-------------------------|

Ngunit bakit, pinilit, kung ayaw ko'ng masaktan?


CHORUS:

G|---------------------------------------------|
D|---------------------------------------------|2x
A|---------------------------------------------|
D|-333333--555555--777777----555555------------|

Sinabe ko sa kanya, na 'di parin nililikha ang katulad ko na parang timang, at 'di mo 
maintindihan.


ADLIB 2:

G|-------------------------------------|
D|-------------------------------------|2x
A|---777777---------555555-------------|
D|-------------------------------------|


VERSE 3:
G|---------------------------------------------|
D|---------------------------------------------|2x
A|--777777---555555--333333---555555--777------|
D|---------------------------------------------|

O bakit ba, pag wala ka na, ako'y kulang


CHORUS:

G|---------------------------------------------|
D|---------------------------------------------|2x
A|---------------------------------------------|
D|-333333--555555--777777----555555------------|

Sinabe ko sa kanya, na 'di parin nililikha ang katulad ko na parang timang, at 'di mo 
maintindihan.


ENDING:

G|---------------------------------------------|
D|---------------------------------------------|3x
A|---------------------------------------------|
D|-333333--555555--777777----555555------------|
Suggest correction
Give kudos to tab author, rate the tab!
1 2 3 4 5
comments
print report bad tab
guest
You may want to rate the tab now too:
select rating
Wanna post a correction for this tab? Suggest correction