Oops, an error
Loading. Please wait.

Bakit Part 2 Tab

version 2
version 2

Whole song

43,810 views 45 this week
5 commentsread comments
1 2 3 4 5
x 12
add to favorites
launch autoscroll
font size
0
reset
how to read this tab
guitar tuner
Autoscroll
slow
fast
+/-
esc
set tempo
stop
Help us to improve Ultimate-Guitar.com Take our survey!
×
Author
Mayonnaise - Bakit Part 2

Aq nga pla c jc nasam ang tabber n2ng 1 sa mga knta ng mayonnaise.
pra po pla ito kina A** , D*D*, kay S** sa mga friends q....
Dali lng 'to enjoy....Ü

*Standard tuning...

[Intro and Verses]
e|-0---0--0-0---4---2-|
B|-0---0--0-0---4---2-|
G|-1---2--1-2---6---4-|
D|-2---2--2-2---6---4-|
A|-2---0--0-0---4---2-|
E|-0---0--0-0---0---0-|

Lumuha kang nag-iisa.....

[Pre-Chorus]
e|-0------2------4---5-|
B|-0------2------4---5-|
G|-2------2------4---5-|
D|-2------4------6---7-|
A|-0------4------6---7-|
E|-0------2------4---5-|

Ngunit bakit, sinabi.....

[Chorus]
e|-0---2---4---2-|
B|-0---2---4---2-|
G|-1---2---4---2-|
D|-2---4---6---4-|
A|-2---4---6---4-|
E|-0---2---4---2-|

Sinabi ko sa kanya......

[Bridge]
e|-4---2---4---2---0---2|
B|-4---2---4---2---0---2|
G|-6---4---4---2---2---4|
D|-6---4---6---4---2---4|
A|-4---2---6---4---0---2|
E|-0---0---0---0---0---0|

O bakit ba pag wala ka.....

[Outro]
(do chorus chords)
Suggest correction
comments
print report bad tab
5 comments total. Showing first comments.
0 reply
Wolfsreign 10 Dec 24, 2005 10:00 PM

NOOOOOOOOOOOOOOOOOO, COOOOOOOOOOOOOOMENT!

0 reply
gabsML 150 May 31, 2006 09:58 PM

nice~

0 reply
korn113 82 Aug 10, 2006 10:19 AM

totally accurate toh mga tol!

guest
You may want to rate the tab now too:
select rating
Wanna post a correction for this tab? Suggest correction