Oops, an error
Loading. Please wait.

Bakit Part 2 Tab

version 3
version 3

Whole song

7,863 views 18 this week
no commentswrite comment
1 2 3 4 5
please rate
add to favorites
launch autoscroll
font size
0
reset
how to read this tab
guitar tuner
Autoscroll
slow
fast
+/-
esc
set tempo
stop
Help us to improve Ultimate-Guitar.com Take our survey!
×
Author
hudaz 59
mayonnaise - bakit part 2
tabbed by chris rafael
guitar tuning: Eb 

**(PAKINGGAN NIYO UNG KANTA SA CD PARA SA STRUMMING AT TIMING)**

Intro: (acoustic)
Eb----------------------(p)--|
Bb----------------------(a)--|
Gb--1----2-1---6----4---(u)--| 
Db--2----2-2---6----4---(s)--| 
Ab--2----0-0---4----2---(e)--|
Eb----------------------(!)--|

(ito na ung distorted)
Eb----------------------|
Bb----------------------|
Gb--1----2-1----6----4--|
Db--2----2-2----6----4--|
Ab--2----0-0----4----2--|
Eb----------------------|

(lead)
Eb----------------------|
Bb----------------------|
Gb--2/4--4/6--6/8--8/9--|
Db--2/4--4/6--6/8--8/9--|
Ab--0/2--2/4--4/6--6/7--|
Eb----------------------|

Eb----------------------|
Bb----------------------|
Gb--1----2-1----6----4--|
Db--2----2-2----6----4--|
Ab--2----0-0----4----2--|
Eb----------------------|


verse:
(parehas lang ng intro)
Eb-----------------|
Bb-----------------|
Gb--1---2---6---4--| 2x
Db--2---2---6---4--|
Ab--2---0---4---2--|
Eb-----------------|

pre-chorus:
Eb--------------------------------------------------|
Bb--------------------------------------------------|
Gb-------2-----------------1------------------------|
Db-------2-----------------2---------------6--7--9--|
Ab-----------------------------------------6--7--9--|
Eb-----------------------------------------4--5--7--|
(ngunit bakit pinilit kung ayaw kong masaktan) 

chorus:
Eb-----------------|
Bb-----------------|
Gb--1--------------| 2x
Db--2---4---6---4--|  
Ab--2---4---6---4--|
Eb------2---4---2--|

Eb----------|---------|
Bb----------|---------|
Gb--1---2-1-|-6----4--|
Db--2---2-2-|-6----4--|
Ab--2---0-0-|-4----2--|
Eb----------|---------|
	     
            (lead)
            |-----------------------------------------------------|
            |-----------------------------------------------------|
            |--8h9-8----------------------------------------------|
            |--------11-9-9h11-9----------------------------------|
            |--------------------9/11-9--7-7h9-7--4h5-4-----------|
            |-------------------------------------------4h5-4--0--|

repeat verse
repeat pre-chorus

chorus:
Eb-----------------|
Bb-----------------|
Gb--1--------------| 2x
Db--2---4---6---4--|  
Ab--2---4---6---4--|
Eb------2---4---2--|


bridge:

Eb----------|		
Bb----------|		
Gb--6----4--| 2x	
Db--6----4--|		
Ab--4----2--|		
Eb----------|		

(lead)
Eb-----------------------------------------------------|
Bb-----------------------------------------------------|
Gb--9-8-8-----------------------9-8-8------------------|
Db--------9-9h11-9--------------------9-9h11-9---------|
Ab-----------------9--9/11~~--------------------11--9--|
Eb-----------------------------------------------------|

                                                       (lead)
Eb--------------------------------------------------|-----------|
Bb--------------------------------------------------|-10-10/12--|
Gb--------------------------------------------------|-----------|
Db--11-------------9---------------7-------------9--|-----------|
Ab--11-------------9---------------7-------------9--|-----------|
Eb--9--------------7---------------5-------------7--|-----------|
(O bakit ba pag wala ka na ako'y kulang, ako'y kulang!!)


Eb-----------------|
Bb-----------------|
Gb--1--------------| 5x
Db--2---4---6---4--|  
Ab--2---4---6---4--|
Eb------2---4---2--|

outro:
Eb------------------------------------------------|
Bb------------------------------------------------|
Gb--9-----11-----13-----14-----13--11--13--11--9--|
Db--9-----11-----13-----14-----13--11--13--11--9--|
Ab--7-----9------11-----12-----11--9---11--9---7--|
Eb------------------------------------------------|

**(PAKINGGAN NIYO UNG KANTA SA CD PARA SA STRUMMING AT TIMING)**

salamat sa nag inspire sakin n gawin tong tab na to 
salamat sa mga kabanda ko  mabuhay tayo!!

suportahan po natin ang mayo dahil talagang astig sila!!
suportahan po natin ang mga bandang pinoy!! \m/
Suggest correction
What's this?
You can suggest a correction to this tab. Community and Mods will review your correction and vote to approve or reject it.
comments
We did not receive enough feedback on this tab! Please rate:
print report bad tab
1 2 3 4 5
guest
You may want to rate the tab now too:
select rating
Please do not post tabs as comments. Select "correction" instead!