Oops, an error
Loading. Please wait.

Bakit Tab

1,584 views 1 this week
no commentswrite comment
1 2 3 4 5
3 more votes to show rating
add to favorites
launch autoscroll
font size
0
reset
how to read this tab
guitar tuner
Autoscroll
slow
fast
+/-
esc
set tempo
stop
Help us to improve Ultimate-Guitar.com Take our survey!
×
Author
band: mayonnaise
song: bakit
tuning: normal with capo on first fret....all notes relative sa capo..
        try nio dn ng walang capo.. ok dn...mbaba lang ng konti..
by: tiano magsombol
e-mail: dishwalla84@yahoo.com


intro:
e|-----------------------------------------------------------------------|
B|--------------------------------------7-7/8-7-5-3-3--7-7/8-7-5-3-3-----|
G|----6-6/7-6-4-2-2----6-6/7-6-4-2-2-------------------------------------|
D|------------------------------------5---------------5------------------|
A|--5----------------5---------------------------------------------------|
E|-----------------------------------------------------------------------|

e|-----------------------------------------------------------------------|
B|--------------------------------------7-7/8-7-5-3-3--7-7/8-10----------|
G|----6-6/7-6-4-2-2----6-6/7-6-4-2-2-------------------------------------|
D|------------------------------------5---------------5------------------|
A|--5----------------5---------------------------------------------------|
E|-----------------------------------------------------------------------|

verse 1:
D           G              D       G
bakit ba kailangan kitang samahan (samahan)
D               G           D      G
di ba pwedeng hndi na lang sumama (sumama)

chorus:
Bm          A
bakit ba kailangan
Bm             A
bakit nararamdaman
Bm          A
bakit tinatamaan
   G            A
at bakit nasasaktan

(intro)

adlib: (after 2nd chorus)

e|-----------------------------------------------|
B|-----------------------------------------------|
G|-----------------------------------------------| (2x)
D|------------------------------4p0-0-0h2-2-2/4--|
A|----4-4p0-0-0h2-2-2/4-4-4/5-4------------------|
E|--2--------------------------------------------|

e|---------------|
B|----0-----2----|
G|--0---2-2---2--|
D|---------------|
A|---------------|
E|---------------|

e|----------------|-7p5---0h2-2-0-------|------------------2-3-3-5----|
B|-----------10p7-|-----3---------0-0h3-|------3-3-----3-5---------3--|
G|------7-9-------|---------------------|--2h4-----2h4----------------|
D|--7h9-----------|---------------------|-----------------------------|
A|----------------|---------------------|-----------------------------|
E|----------------|---------------------|-----------------------------|


e|--5/7-5-----------|
B|--------7-5-5-3---|
G|------------------| (end of adlib)
D|------------------|
A|------------------|
E|------------------|

(hit this after every A chord of chorus)
e|---5-5-5-5-----|
B|---5-5-5-5-----|
G|---2-2-2-2-----|
D|---------------|
A|---------------|
E|---------------|
Suggest correction
Give kudos to tab author, rate the tab!
1 2 3 4 5
comments
print report bad tab
guest
You may want to rate the tab now too:
select rating
Wanna post a correction for this tab? Suggest correction