Oops, an error
Loading. Please wait.

Dahil Tab

version 3
version 3

Intro

Whole song

1,381 views 1 this week
1 commentread comment
1 2 3 4 5
accurate
x 5
add to favorites
launch autoscroll
font size
0
reset
how to read this tab
guitar tuner
Tab Pro tools
  • play this tab
  • loop segment
  • change instrument
  • show fretboard
  • metronome
Autoscroll
slow
fast
+/-
esc
set tempo
stop
band/artist: mayonnaise
Song title: dahil
tabbed by: stanley tan!

standard tuning (EADGBe)

Notation Legend:

/ = slide up
\ = slide down
h = hammer-on
p = pull-off 
b = bend
x = dead string

intro:

e|----------------------------|              22
B|----------------------------| (2x)        2  2 \ /
G|----------------------------|               2   /
D|--7--7----------------------|              2   / \                
A|-6--6--6--8-6-8/10-8--6-6-6-| ----------| 2222                      
E|----------------------------|           |  
                                          | 
e|------------------------------------------------------------|
B|------------------------------------------------------------|
G|----------------------------------------------------8-8-8-8-|  
D|--5--5---3---3h5p3-----------------8-----8-----8------------|
A|-3--3--3---3-------5-3--------6------6-----6------6---------|
E|-----------------------6-4--4----4--------------------------|

e|----------------------------|   
B|----------------------------|       
G|----------------------------| (2x)
D|--7--7----------------------|    
A|-6--6--6--8-6-8/10-8--6-6-6-|                            
E|----------------------------|      

e|-------------------------|   
B|-------------------------|  
G|-------------------------| 
D|--7--7---8--8/10-8-6-5---|  
A|-6--6--6--6------------6-|                    
E|-------------------------|   

        
e|-----------------------------------|   
B|-----------------------------------|       
G|-----------------------------------| 
D|--7--7---------------------------8-|    
A|-6--6--6--8-6-8/10-8-8-------6-6---|                            
E|-----------------------6-4-4-------|    
             
Verse:

e|-6------3--4----|
B|-6------4--4----|
G|-8------5--5----|  (2x)
D|-8-(2x)-5--6----|
A|-6------3--6----|
E|-x---------4----|

Pre-chorus:

e|------------------|
B|------------------|
G|-10--13--10--13---|  
D|-10--13--10--13---|  
A|-8---11--8---11---|
E|------------------|

Chorus:

e|-6--3--1----------------------------|
B|-6--4--1----------------------------|
G|-8--5--3----------------------------|  (2x)
D|-8--5--3---3-5-6-x-3-5-6-x-x-x-8\6--|  
A|-6--3--1---3-5-6-x-3-5-6-x-x-x-8\6--|
E|-----------1-3-4-x-1-3-4-x-x-x-6\4--|

Bridge:


e|----------------------|
B|----------------------|       
G|-8---7-7-----------8--|
D|-8------8-8--------8--| 
A|-6----------8h10---6--|        
E|----------------------|

e|--------------------|         e|---------------------|
B|--------------------|         B|--------4------------|     22  
G|--------8b-------7b-|         G|--------3-------3/5--|    2  2  \ /
D|-10--------8--------|   (3x)  D|-6-5-3--1--3/5--3/5--|      2    /
A|-10-(4x)---8-(4x)---|         A|-6-5-3-----3/5--1/3--|     2    / \
E|-8---------6--------|         E|-4-3-1-----1/3-------|    2222


e|----------------------------|
B|----------------------------| (2x)
G|----------------------------|  
D|--7--7----------------------|                                     
A|-6--6--6--8-6-8/10-8--6-6-6-|                                 
E|----------------------------|             
                                           
e|-------------------------------|
B|-------------------------------| 
G|-------------------------------|  
D|--7--7-------------------------|                                     
A|-6--6--6--8-6-8/10-8--6-6h8-6b-|                                
E|-------------------------------| 


e|---------------------|
B|---------------------| 
G|-8-------------------|  
D|-8----B-R-E-A-K-!!!--|                                     
A|-6-------------------|                                
E|---------------------| 

Chorus:

e|-6--3--1----------------------------|
B|-6--4--1----------------------------|
G|-8--5--3----------------------------|  (4x)
D|-8--5--3---3-5-6-x-3-5-6-x-x-x-8-6--|
A|-6--3--1---3-5-6-x-3-5-6-x-x-x-8-6--|
E|-----------1-3-4-x-1-3-4-x-x-x-6-4--|

e|--------------------------|
B|--------------------------|
G|--------------------------|  (4x)
D|-3-5-6-x-3-5-6-x-x-x-8\6--|  
A|-3-5-6-x-3-5-6-x-x-x-8\6--|
E|-1-3-4-x-1-3-4-x-x-x-6\4--|

e|-------------|    e|-----------------------------|        
B|-------------|    B|-9--8-8--x-9--8-8-x----------|
G|-8-----------|    G|-8--8-8--x-8--8-8-x-8h10p8---|   (17x) 
D|-8----P.M.---|    D|--------------------------10-|  
A|-6-----------|    A|-----------------------------|                       
E|-------------|    E|-----------------------------|

e|--------|  
B|--------|  
G|-8------|    
D|-8------|
A|-6------|                     
E|-0------|

vote nu nman to!!!!!!tnx!!! \m/

elite_0123@yahoo.com
comments
print report bad tab
1 comment total.
0 reply
herk018 wrote on December 2 2005, 11:01 pm

tsong, pinapahirap u kc...

unang una, ang guitar tuning ng matonnaise ay Eb,Ab,Db,Gb,Bb,eb...

pangalwa, ang layo...

I want to post or [tab]
guest
You may want to rate the tab now too:
select rating
Please do not post tabs as comments. Select "correction" instead!