Oops, an error
Loading. Please wait.

Dahil Tab

version 4
version 4

Intro

Whole song

207 views 3 this week
no commentswrite comment
1 2 3 4 5
please rate
add to favorites
launch autoscroll
font size
0
reset
how to read this tab
guitar tuner
Tab Pro tools
  • play this tab
  • loop segment
  • change instrument
  • show fretboard
  • metronome
Autoscroll
slow
fast
+/-
esc
set tempo
stop
Intro:
e|---------------------------|	      |-----------------------------------|
B|---------------------------|	      |-----------------------------------|
G|---------------------------|2x      |--------------------------------2--|
D|----6---6---------8--------| 	      |----6---6---4---4--6--4------4--2--|
A|--7---7---7-9-7-9---9-7-7--|	      |--4---4---4---4---------7--7-------|
E|---------------------------|	      |-----------------------------------|

then
e|---------------------------|	  |--------------------------------|
B|---------------------------|	  |--------------------------------|
G|---------------------------|2x  |--------------------------------|
D|----6---6---------8--------| 	  |----6---6---9---9-11-9-6-6------|
A|--7---7---7-9-7-9---9-7-7--|	  |--7---7---7---7-----------------|
E|---------------------------|	  |--------------------------------|


e|-------------------------------|	  
B|-------------------------------|	  
G|-----------------------------2-|2x  
D|----6---6---4---4-6-4-----4--2-| 	  
A|--4---4---4---4-------7-7------|	  
E|-------------------------------|	 



Verse:
e|------------------|
B|----------5-------|
G|--1---1---6---2---|
D|--2---2---6---2---|
A|--2---2---4-------|
E|------------------|


Pre-chorus:
e|----------------------|
B|----------------------|
G|----------------------|(listen for struming pattern)
D|--4---7---4---7---9---|
A|--4---7---4---7---9---|
E|--2---5---2---5---7---|


Chorus:
e|-----------------------------|
B|------5----------------------|
G|--9---6---4-----------4------|(listen for struming pattern)
D|--9---6---4-------2---4--2---|
A|--7---4---2---2-4-0---2--0---|
E|--------------2-4-0------0---| 


Bridge:
e|---------|------|
B|---------|------|
G|--6---4--|--7---|
D|--6---4--|--7---|
A|--4---2--|--5---|
E|---------|------|


Outro:
e|-----------|
B|--10h9--9--|
G|--9-----9--|
D|--7-----7--|
A|-----------|
E|-----------|
comments
We did not receive enough feedback on this tab! Please rate:
print report bad tab
1 2 3 4 5
I want to post or [tab]
guest
You may want to rate the tab now too:
select rating
Please do not post tabs as comments. Select "correction" instead!