Oops, an error
Loading. Please wait.

Dahil Tab

version 5
version 5

Whole song

489 views 1 this week
no commentswrite comment
1 2 3 4 5
please rate
add to favorites
launch autoscroll
font size
0
reset
how to read this tab
guitar tuner
Tab Pro tools
  • play this tab
  • loop segment
  • change instrument
  • show fretboard
  • metronome
×
Best way to learn
"Dahil"
Autoscroll
slow
fast
+/-
esc
set tempo
stop
Contributor
Song:Dahil
Band:Mayonnaise
Tabbed & Lyrics by:Brandon Llapitan
E-mail:brandon_rakista@yahoo.com
Cp No.:09186243757/09157906477
Age:14 yrs old

NOTE:This is the correct way to play this song!!!!!! This is the ver.5!!!!!
     sori kung ngayon lng ako ngsubmit!!! 99% correct!!!!! So I hope you like it!!!!!;)             


Intro:(Clean) 
eb--------------------------|-------------------------|-------------------------------------------|
Bb--------------------------|-------------------------|-------------------------------------------|
Gb--------------------------|-------------------------|-------------------------------------------|
Db--------------------------|-------------------------|---------------------------------777777----|
Ab--11--11--9—-9h11-9/7--77-|--11--11--9—-9h11-9/7-00-|--11--11---9---9h11---9/7--------777777----|
Eb-0---0---0-0--------------|-0---0--0---0------------|-9---9---9---9------------9-7-5--555555----|
(repeat w/distortion)
   
then......
eb--------------------------|-------------------------|-------------------------------------------|
Bb--------------------------|-------------------------|-------------------------------------------|
Gb--------------------------|-------------------------|-------------------------------------------|
Db--------------------------|---------9—-9h11-9-------|----6---6---4---4h6-4---4------777777------|
Ab--11--11--9—-9h11-9/7--77-|-11--11---—-------11-9/4-|--4---4---4---4-------7---7----777777------|
Eb-0---0---0-0--------------|0---0--0--0--------------|----------------------------5--555555------|

Verse:(clean)
eb—000000----000000-----000000-----|
Bb-000000----000000-----000000-----|
Gb-999999----666666-----xxxxxx-----|(2x)
Db-999999----666666-----777777-----|
Ab-777777----444444-----777777-----|
Eb----------------------555555-----|

Refrain:(w/ distortion)
   Hindi mpigil    ang yong damdamin...   wala  na sya    dto....
eb-0--0--0—-0--0--|--------------------|-0--0--0--0--0-------------|
Bb-0—-0--0--0--0--|--------------------|-0--0--0—-0-—0-------------|
Gb(3)(3)(3)(3)(3)-|--------------------|(3)(3)(3)(3)(3)------------|
Db-4—-4-—4—-4—-4--|------77777---------|-4—-4—-4—-4—-4----77777----|
Ab-2—-2—-2—-2-—2--|------77777---------|-2—-2—-2—-2-—2----77777----|
Eb----------------|------55555---------|------------------55555----|

Chorus:
  Dahil  sa  yo   ako'y  nandito   ngayon....
eb-000-------000----------000-------------------------------xxx------------|
Bb-000-------000----------000-------------------------------xxx------------|
Gb-998-------998----------998-------------------------------xxx------------|(2x)
Db-999---99-—999----99----999-------99-------------------------------------|
Ab-776---99-—776----99----776-------99—-9-11-12-x—9-11-12---------12-11----|
Eb-------77---------77--------------77—-9-11-12-x-9-11-12---------12-11----|
Then Repeat....
(Intro)
(Verse)
(Refrain)
(Chorus)

After the chorus play this......
eb-----------------------------------------------------|
Bb-----------------------------------------------------|
Gb-----------------------------------------------------|
Db------------------12-12------------------------------|
Ab------------------------12-12------------------------|
Eb-000000000000000---------------0000000000------------|

eb-----------------------------------------------------|
Bb-----9~----------4~----------------------------------|
Gb-66—-9~------44-—4~-(2x)-then------------------------|(2x)
Db-66—-9~--00--44—-4~-----------7777777777-------------|
Ab-44------00--22---------------7777777777-------------|
Eb---------00-------------------5554554555-------------|
           ^
  *up and down strumming*(0)

then after that play this.....
eb-----------------------------------------------------------------------|
Bb-----------------------------------------------------------------------|
Gb-----------------------------------------------------------------------|
Db-----------------------------------------------------------------------|
Ab--11--11---9---9h11—9/7--77-(2x)-then---11--11--9--9h11-9/7—7h9—-7~~~~-|
Eb-0---0---0---0-------------------------0---0---0--0--------------------|

  Dahil sayo... Dahil sayo...  Dahil sa yo ako ay narito...
eb---00000--------00000-----------00000---------|
Bb---00000--------00000-----------00000---------|
Gb---99999--------99999-----------99999(pause!)-|
Db---99999--------99999-----------99999---------|
Ab---77777--------77777-----------77777---------|
Eb----------------------------------------------|
Tuloy tuloy ang pag strum hanggang.....

(repeat the chorus 2x)

then....
eb--------------------------------|
Bb—9999—-910—9--------------------|
Gb-9999—-99-—9—xx9-11-9-----------|(12x)
Db----------------------11--------|
Ab--------------------------------|
Eb--------------------------------|

Outro:
eb-------------|
Bb-------------|
Gb-------------|
Db---6---------|
Ab-----7/6~~~--|
Eb-0-----------|


Guitar legend:
h=hammer
x=palm mute
/=slide
()=harmonic
~=vibrato
comments
We did not receive enough feedback on this tab! Please rate:
print report bad tab
1 2 3 4 5
I want to post or [tab]
guest
You may want to rate the tab now too:
select rating
Please do not post tabs as comments. Select "correction" instead!