Oops, an error
Loading. Please wait.

Eddie Song Tab

version 2
version 2

Whole song

948 views 6 this week
no commentswrite comment
1 2 3 4 5
excellent!
x 2
add to favorites
launch autoscroll
font size
0
reset
how to read this tab
guitar tuner
Tab Pro tools
  • play this tab
  • loop segment
  • change instrument
  • show fretboard
  • metronome
Autoscroll
slow
fast
+/-
esc
set tempo
stop
Contributor
band/artist: mayonnaise
Song title: eddie song
tabbed by: stanley tan!

standard tuning (EADGBe)


intro:

e|-6------------6----66-------33---6----66-------33-|
B|-8------------6h8--88-------33---6h8--88-------33-|
G|-8--(2x)------6h8--88--(2x)-55---6h8--88--(2x)-55-|
D|-8------------6h8--88-------55---6h8--88-------55-|
A|-6------------6----66-------33---6----66-------33-|
E|-0------------x----xx-------xx---x----xx-------xx-|

verse 1:

   yun lang...naiisip mo pa ba...
   yun lang...kung aalis ka ba... 
 
e|-66666666--33333333--66666666--33333333-|
B|-88888888--33333333--88888888--33333333-|
G|-88888888--55555555--88888888--55555555-|
D|-88888888--55555555--88888888--55555555-|
A|-66666666--33333333--66666666--33333333-|
E|----------------------------------------|

Chorus:
 
  O kahit na mawala ka pa....
  nandito lang ako....naghihintay.....

e|-44--33--11-----8--|                           
B|-44--33--11-----11-|                            
G|-55- 33--22-----10-|                              
D|-66--55--33--8--8--|                            
A|-66--55--33--8-----|                            
E|-44--33--11--6-----| 


e|-6----66-------33---|
B|-6h8--88-------33---|
G|-6h8--88--(2x)-55---|
D|-6h8--88-------55---|
A|-6----66-------33---|
E|-x----xx-------xx---|

verse 2:

   yun lang...malalaman ko pa ba...
   yun lang...kung babalik ka pa...
   yun lang...wala na bang magagawa...
   yun lang...mamamatay ka na...

e|-66666666--33333333--66666666--33333333-|
B|-88888888--33333333--88888888--33333333-|
G|-88888888--55555555--88888888--55555555-|
D|-88888888--55555555--88888888--55555555-|
A|-66666666--33333333--66666666--33333333-|
E|----------------------------------------|
              

Chorus:
 
  O kahit na...mawala ka pa....
  nandito lang ako....naghihintay.....

e|-44--33--11-----8--|                           
B|-44--33--11-----11-|                            
G|-55- 33--22-----10-|                              
D|-66--55--33--8--8--|                            
A|-66--55--33--8-----|                            
E|-44--33--11--6-----| 

Bridge:

e|-4--6-----3--|
B|-4--6--6--4--|
G|-5--7--8--5--|    (2x)
D|-6--8--8--5--|
A|-6--8--6--3--|
E|-4--6--------|

e|------------------------------------|
B|------------------------------------|
G|------------------------------------|    (2x)
D|--5h6p5--3h5p3----------------------|
A|----------------3h5p3--1h3p1--------|
E|-------------------------------1h3--|

e|-----------------------------------------|
B|-----------------------------------------|
G|--7h8p7----------------------------------|    (2x)
D|---------8h10p8--------------------------|
A------------------8h10p8------------------|
E|-------------------------8h10p8---6h8----|

e|--------------------------------------|
B|--------------------------------------|
G|--3h5p3-------------------------------|    (4x)
D|---------3h5p3------------------------|
A|----------------3h5p3--3h4p3--1h3-----|
E|--------------------------------------|


 PALM MUTED!!!!!!!!!
e|-----------------------------------------------|                          
B|-----------------------------------------------|
G|------------------------5-3----(16x)--3-5-3-5--|    (2x)
D|----------------------------5------------------|
A|-----------------------------------------------|
E|-----------------------------------------------|

e|---------------------------8-6-----------------|                          
B|--------------4---6-4--8-6---------------------|
G|--3-5-3-5--3-5-5-------------------------------|
D|-----------------------------------------------|
A|-----------------------------------------------|
E|-----------------------------------------------|

Chorus:
 
  O kahit na...mawala ka pa....
  nandito lang ako....naghihintay.....

e|-44--33--11-----8--|                           
B|-44--33--11-----11-|       2222222    x     x   
G|-55- 33--22-----10-|      2       2    x   x       
D|-66--55--33--8--8--|              2     x x      
A|-66--55--33--8-----|       2222222       x       
E|-44--33--11--6-----|      2             x x
                            2            x   x
                            2 2 2 2 2   x     x
 
  
tapusin mo ung kanta sa LETRANG --------->>>>>> D
elite_0123@yahoo.com
comments
We did not receive enough feedback on this tab! Please rate:
print report bad tab
1 2 3 4 5
I want to post or [tab]
guest
You may want to rate the tab now too:
select rating
Please do not post tabs as comments. Select "correction" instead!