Oops, an error
Loading. Please wait.

Ipagpatawad Mo Bass Tab

4,033 views 9 this week
3 commentsread comments
1 2 3 4 5
1 last vote to show rating
add to favorites
launch autoscroll
font size
0
reset
guitar tuner
×
Best way to learn
"Ipagpatawad Mo"
Autoscroll
slow
fast
+/-
esc
set tempo
stop
Author
Difficulty
Song:Ipagpatawad mo
Artist:Mayonnaise
Tabbed by:June Robert Corpuz
Email:junerobert_5@yahoo.com


                          Eb-Tuning

~ -let it ring

Intro:

G|--------------------|
D|--------------------|
A|--5~-4~----5~-4~----|
E|--------2~-------2~-|

Verse 1:

G|--------------------------------------------|
D|--------------------------------------------|
A|--5~-4~----5~-4~---2~-4~----2~-4~----2~-7~--|
E|--------2~------2~-------2~-------2~--------|

Verse 1 Lyrics
Ipagpatawad mo, aking kapangahasan
Binibini ko, sana'y maintindihan
Alam kong kailan lang tayo nagkatagpo
Ngunit para lang sa'yo, ayaw nang lumayo
Ipagpatawad mo, ako ma'y naguguluhan

Verse 2:

G|--------------------------------------------|
D|--------------------------------------------|
A|--5~-4~----5~-4~---2~-4~----2~-4~----2~-7~--|
E|--------2~------2~-------2~-------2~--------|

Verse 2 Lyrics
'Di ka masisi, na ako ay pagtakhan
'Di na dapat ako pagtiwalaan
Alam kong kailan lang tayo nagtagpo
Ngunit para lang sa'yo, ayaw nang lumayo
Ipagpatawad mo minahal kita agad

Chorus

G|--------------------------------|
D|--------------------------------|
A|--555-44----555-444----22-7~-7~-|
E|---------22---------22----------|

Chorus Lyrics
Hah, minahal kita agad
Hah, minahal kita agad
Ipagpatawad mo, ohh

Adlib

G|----------------------------------------|
D|----------------------------------------|
A|-333-----333-222-2~-333-----333-222-2~--|
E|-----333----------------333-------------|

Bridge

G|--------------------------------------------------------------|
D|--------------------------------------------------------------|
A|-777777-------777777-------------------444-------------444----|
E|--------22222--------22222-5555555-444-----5555555-444--------|

Cont'd

G|-------------------------|
D|-------------------------|
A|------------22222-22~~~--|
E|-2222222222--------------|

Bridge Lyrics
Minahal kita
Kay tagal-tagal
Sana nama'y ipagpatawad mo
Ang malabis na kabilisin ko
Ngunit ang lahat ng ito'y totoo, totoo....

Outro

G|------------------------------------------|
D|------------------------------------------|
A|-777~------777~------777~------777~-------|
E|------777~------777~------777~------777~--|

G|-----------------------|
D|-----------------------|
A|-7~----7~----7~----7~--|
E|----7~----7~----7~-----|

Outro lyrics

(Ipagpatawad mo) hah, minahal kita agad
(Ipagpatawad mo) hah, minahal kita agad
(Ipagpatawad mo) hah, minahal kita agad
(Ipagpatawad mo) hah....

Ipagpatawad mo, (ipagpatawad mo)
Ipagpatawad mo, (ipagpatawad mo)
Ipagpatawad mo, (ipagpatawad mo)
Ipagpatawad mo, (ipagpatawad mo)
Ipagpatawad mo, (ipagpatawad mo)
Ipagpatawad mo, (ipagpatawad mo)



                           Standard Tuning

Song:Ipagpatawad mo
Artist:Mayonnaise
Tabbed by:June Robert Corpuz
Email:junerobert_5@yahoo.com


                          Eb-Tuning

~ -let it ring

Intro:

G|--------------------|
D|--------------------|
A|--4~-3~----4~-3~----|
E|--------1~-------1~-|

Verse 1:

G|--------------------------------------------|
D|--------------------------------------------|
A|--4~-3~----4~-3~---4~-3~----1~-3~----1~-6~--|
E|--------1~------1~-------1~-------1~--------|

Verse 1 Lyrics
Ipagpatawad mo, aking kapangahasan
Binibini ko, sana'y maintindihan
Alam kong kailan lang tayo nagkatagpo
Ngunit para lang sa'yo, ayaw nang lumayo
Ipagpatawad mo, ako ma'y naguguluhan

Verse 2:

G|--------------------------------------------|
D|--------------------------------------------|
A|--4~-3~----4~-3~---4~-3~----1~-3~----1~-6~--|
E|--------1~------1~-------1~-------1~--------|

Verse 2 Lyrics
'Di ka masisi, na ako ay pagtakhan
'Di na dapat ako pagtiwalaan
Alam kong kailan lang tayo nagtagpo
Ngunit para lang sa'yo, ayaw nang lumayo
Ipagpatawad mo minahal kita agad

Chorus

G|--------------------------------|
D|--------------------------------|
A|--444-33----444-33----11-6~-6~-|
E|---------11--------11----------|

Chorus Lyrics
Hah, minahal kita agad
Hah, minahal kita agad
Ipagpatawad mo, ohh

Adlib

G|----------------------------------------|
D|----------------------------------------|
A|-222-----222-111-1~-222-----222-111-1~--|
E|-----222----------------222-------------|

Bridge

G|--------------------------------------------------------------|
D|--------------------------------------------------------------|
A|-666666-------666666-------------------333-------------333----|
E|--------11111--------11111-4444444-333-----4444444-333--------|

Cont'd

G|-------------------------|
D|-------------------------|
A|------------11111-11~~~--|
E|-1111111111--------------|

Bridge Lyrics
Minahal kita
Kay tagal-tagal
Sana nama'y ipagpatawad mo
Ang malabis na kabilisin ko
Ngunit ang lahat ng ito'y totoo, totoo....

Outro

G|------------------------------------------|
D|------------------------------------------|
A|-666~------666~------666~------666~-------|
E|------666~------666~------666~------666~--|

G|-----------------------|
D|-----------------------|
A|-6~----6~----6~----6~--|
E|----6~----6~----6~-----|

Outro lyrics

(Ipagpatawad mo) hah, minahal kita agad
(Ipagpatawad mo) hah, minahal kita agad
(Ipagpatawad mo) hah, minahal kita agad
(Ipagpatawad mo) hah....

Ipagpatawad mo, (ipagpatawad mo)
Ipagpatawad mo, (ipagpatawad mo)
Ipagpatawad mo, (ipagpatawad mo)
Ipagpatawad mo, (ipagpatawad mo)
Ipagpatawad mo, (ipagpatawad mo)
Ipagpatawad mo, (ipagpatawad mo)







Suggest correction
Give kudos to tab author, rate the tab!
1 2 3 4 5
comments
print report bad tab
3 comments total.
0 reply
nirvana_14 52 May 22, 2007 06:38 AM

wrong tab... ug, why do you always reject my tab? but you accept wrong tabs like this? please be equal

0 reply
Daniel M Andres 256 Jun 20, 2008 10:08 PM

mali mali nga

0 reply
Daniel M Andres 256 Jun 20, 2008 10:09 PM

halos lahat ng part mali

guest
You may want to rate the tab now too:
select rating
Wanna post a correction for this tab? Suggest correction