Oops, an error
Loading. Please wait.

Ipagpatawad Mo Tab

version 2
version 2

Whole song

14,100 views 9 this week
no commentswrite comment
1 2 3 4 5
2 more votes to show rating
add to favorites
launch autoscroll
font size
0
reset
how to read this tab
guitar tuner
Autoscroll
slow
fast
+/-
esc
set tempo
stop
Help us to improve Ultimate-Guitar.com Take our survey!
×
Author
Artist : Mayonnaise
Title : Ipagpatawad mo
Tabbed By : Jhongskie :)

May nibago lang si ako ng Konti d2, at sa tingen ko mas okay to :) hehehe Hopia Like it :)

Kung may komento i mail nyo ako sakin email add :) hack_joesmoe@yahoo.com

Intro : 2x

|--2--------4--2-------|
|--2--------5--2-------|
|--2--------4--2-------|
|--------2--6--2-------|
|----2h4----4--4-------|
|--------------2-------|



Verse 1 :


|--2----------------4------2----|
|--2----------------5------2----|
|--2----------------4------2----|
|-------------------6------2----|
|-------------------4------4----|
|--------------------------2----|
.ipagpatawad mo... aking.. kapangahasan


    DM7             C#m      F#m
Binibini ko, sana'y maintindihan
      Bm             C#m        F#m7-F#m
Alam kong kailan lang tayo nagkatagpo
        Bm7       C#m7             F#m7-F#m    
Ngunit para lang sa'yo, ayaw nang lumayo
       Bm7           Esus      E
Ipagpatawad mo, ako ma'y naguguluhan


Verse 2 : ganun din po ung Chords

Verse 2: Verse 1 chords
'Di ka masisi, na ako ay pagtakhan
'Di na dapat ako pagtiwalaan
Alam kong kailan lang tayo nagtagpo
Ngunit para lang sa'yo, ayaw nang lumayo
                            Esus-E  7sus-E
Ipagpatawad mo minahal kita agad

Chorus :

DM7      C#m      F#m
Hah, minahal kita agad
DM7      C#m      F#m
Hah, minahal kita agad
        Bm7      Esus-E  Esus-E
Ipagpatawad mo, ohh


Adlib:
eb|-----------------------------------------------------------------------|
Bb|--------------------------------------------------------------------9--|
Gb|-------7-------------------------7-------------------------------------|
Db|-9-9-7---10-9-7-9----------9-9-7---10-9-7-9-9-9-10-9--7p6-7-7-7/9-9----|
Ab|------------------5-5-7-5----------------------------------------------|
Eb|-----------------------------------------------------------------------|


When Adlib Use this Chords :)

   Em7   G   C9  B7sus  B7sus
|--x~--3~--3~----2~----2~--|
|--0~--3~--3~----4~----4~--|
|--0~--0~--0~----2~----2~--|
|--2~--0~--2~----4~----4~--|
|--3~--2~--3~----2~----2~--|
|--x~--3~--x~----x~----x~--|


Bridge :

EM7            F#m
Minahal kita
EM7            F#m
Kay tagal-tagal
       AM7        G#m  C#m
Sana nama'y ipagpatawad mo
       AM7        G#m   C#m
Ang malabis na kabilisan ko
       F#m               B7sus-B7 B7sus-B7
Ngunit ang lahat ng ito'y totoo, totoo

Outro:
         EM7              B7sus
(Ipagpatawad mo) hah, minahal kita agad
         EM7              B7sus
(Ipagpatawad mo) hah, minahal kita agad
         EM7              B7sus
(Ipagpatawad mo) hah, minahal kita agad
         EM7           B7sus
(Ipagpatawad mo) hah...
EM7
Ipagpatawad mo, (ipagpatawad mo)
B7sus
Ipagpatawad mo, (ipagpatawad mo)
EM7
Ipagpatawad mo, (ipagpatawad mo)
B7sus
Ipagpatawad mo, (ipagpatawad mo)
EM7
Ipagpatawad mo, (ipagpatawad mo)
B7sus                            EM7
Ipagpatawad mo, (ipagpatawad mo)



xD para kay Celine to ha :) hahaha
From Jhongskie :)
Suggest correction
Give kudos to tab author, rate the tab!
1 2 3 4 5
comments
print report bad tab
guest
You may want to rate the tab now too:
select rating
Wanna post a correction for this tab? Suggest correction