Oops, an error
Loading. Please wait.

Jopay Tab

version 1
version 1

Solo

Whole song

Interactive

9,626 views 72 this week
4 commentsread comments
1 2 3 4 5
accurate
x 6
add to favorites
launch autoscroll
font size
0
reset
how to read this tab
guitar tuner
Tab Pro tools
  • play this tab
  • loop segment
  • change instrument
  • show fretboard
  • metronome
Autoscroll
slow
fast
+/-
esc
set tempo
stop
Contributor
Difficulty
advanced
"....and their hit single JOPAY, with its catchy lyrics and a scorching guitar solo..." --Philmusic.com

Jopay Guitar Solo

Mayonnaise

|---------------------------------------------------|
|   '&'                                             |
|    #                                              |
|    #     Tabbed by Don Michael Acelar De Leon     |
|   _#_    17 na ako!!!                             |
|  ( # )                                            |
|  / O \   donmichael001@yahoo.com                  |
| ( === )                                           |
|  `---'                                            |
|---------------------------------------------------|


"Sa tunay na mundo..."

Lead-in

	Em D/F#	C
Eb|-----x--x----x----|
Bb|-----x--x----x----|
Gb|-----9~~11~~-12~~-|
Db|-----x--x----x=---| tremolo picking
Ab|-----7~~9~~--10~~-|
Eb|--//-x--x----x----|
	
	Em	D/F#
Eb|-12---~~----------| 
Bb|-15b17~~----------|
Gb|------------------|
Db|------------------| tremolo picking...then
Ab|----------------~-|
Eb|------------------|
	
	C
Eb|-t15-10s12--(repeat 10x)-| 
Bb|-------~-----------------|
Gb|-------------------------|
Db|-------------------------| decrease each repetition gradually
Ab|-------------------------|
Eb|-------------------------|

	Em			D/F#
Eb|----------------------------------------------------| 
Bb|-8-8-10p8-10--8h10p8-10p8-10------------------------|
Gb|------------------------------7-7-9p7h9-7h9p7-9p7-7-|
Db|----------------------------------------------------| 
Ab|----------------------------------------------------|
Eb|----------------------------------------------------|

first tapping part

    C
Eb|---------------------------------t15--t15t15-| 
Bb|-t158h10-t158h10-t158h10-t158h10-------------|
Gb|---------------------------------------------|
Db|---------------------------------------------| (2x)
Ab|---------------------------------------------|
Eb|---------------------------------------------|


String skipping...hardest part of the solo

    Em				D/F#

Eb|-12----1214----1415----1514----1412----12-------------------------| 
Bb|-----------------------------------------15-----1513-----1312-----|
Gb|---1212----1212----1212----1212----1212----1212-----1212-----1212-|
Db|------------------------------------------------------------------| 
Ab|------------------------------------------------------------------|
Eb|------------------------------------------------------------------|

    C
   
Eb|-12121212-14141414-15151515-17171717-151715~~| 
Bb|---------------------------------------------|
Gb|---------------------------------------------|
Db|---------------------------------------------| 
Ab|---------------------------------------------|
Eb|---------------------------------------------|

    Em		D/F#
Eb|------------------| 
Bb|-10b12~~~-(9x)----|
Gb|------------------| 
Db|------------------| decrease each repetition gradually
Ab|----------------~-|
Eb|------------------|
	
    C

Eb|-10b12~~(tr.p.)-----------------| 
Bb|----------------10b12~~(tr.p.)--|
Gb|--------------------------------| (2x)
Db|--------------------------------| 
Ab|--------------------------------|
Eb|--------------------------------|
	
double tremolo tapping part..

	Em	D/F#
Eb|-t15t15-10h12p10h12--(repeat 8x)-| 
Bb|-------~-------------------------|
Gb|---------------------------------|
Db|---------------------------------|
Ab|---------------------------------|
Eb|---------------------------------|

    C

Eb|-17171717--19191919--20202020--22-22-22-22//-| 
Bb|---------------------------------------------|
Gb|---------------------------------------------|
Db|---------------------------------------------| 
Ab|---------------------------------------------|
Eb|---------------------------------------------|


Matagal din akong hindi nakagawa ng tabs...sana po makatulong. ;-)
comments
print report bad tab
4 comments total. Showing first comments.
0 reply
merchant619 wrote on December 19 2005, 09:41 pm

oi.. c tco toh.. just dropped by to rate ur tab... God bless!

0 reply
Viewfinder wrote on December 30 2005, 10:17 pm

hi don. c iman to. ibabagsak ko ang tab mo. joke lang. ^_^

0 reply
paul21 wrote on April 23 2007, 03:49 am

Halimaw!!!! HAHA

I want to post or [tab]
guest
You may want to rate the tab now too:
select rating
Please do not post tabs as comments. Select "correction" instead!