Oops, an error
Loading. Please wait.

Jopay Bass Tab

version 2
version 2

Whole song

Interactive

3,560 views 24 this week
1 commentread comment
1 2 3 4 5
please rate
add to favorites
launch autoscroll
font size
0
reset
guitar tuner
Autoscroll
slow
fast
+/-
esc
set tempo
stop
Help us to improve Ultimate-Guitar.com Take our survey!
×
Title:Jopay
Artist:Mayonnaise
Tabbed by: Suhair Abangon

I am not 100% sure dito. Pero para saakin eto na ung pinaka astig na bass tabs ng Jopay.
(TAMA to!) Pakinggan nyo nalang yung song para sa timing.

Stanza 1

G|---------------------|
D|---------------------| Repeat 5x
A|--5---3--------------|     
E|---------------------|
     

G|---------------------|
D|----4-5--------------|
A|--5-----3------------|
E|---------------------|


G|---------------------|
D|----4-5--------------|
A|--5-----3-3(Break)---|
E|---------------------|


G|---------------------|
D|----4-5--------------| Repeat 3x
A|--5-----3------------|
E|---------------------|

Refrain:

G|--------------------------------------------------|
D|--------------------------------------------------|
A|-----------------2-2-2-2-2-2-2-2—-3-3-3-3—-5-5-5-5|
E|-5-5-5-5-5-5-5-5----------------------------------|

Chorus:

G|-------------------------------------------|
D|-------------------------------------------| Repeat 4x
A|-------------------------------------------|
E|--3-3-3-3-3—5-5-5-5-5--7-7-7-7-7—5-5-5-5-5-|

Stanza 2

(Repeat 1st stanza chords)

Bass line
G|-------------|
D|--5h7-5-4-0--|
A|-------------|
E|-------------|


Adlib
G|-----------------------|
D|-----------------------| Repeat 3x
A|-----------------------|
E|--0-0--2-2--3-3-3-3-3--|

Solo Guitar
(Pagkatapos ng solo pasok sa refrain)
G|-------------------------------------------------------------------------|
D|-------------------------------------------------------------------------|
A|------------------2-2-2-2-2-2-2-2—-3-3-3-3—-5-5-5-5—-3-3-3-3—-5-5-5-5-5--|
E|--5-5-5-5-5-5-5-5--------------------------------------------------------|

(Solo ulit ng Guitar)

G|-----------|
D|-----------|
E|--5(hold)--|

Repeat Chorus 2x

G|-------------------------------------------------|
D|-------------------------------------------------| Repeat 3x
A|-------------------------------------------------|
E|--3-3-3-3—3--5-5-5-5—-7-7-7-7-7—-5(break)-5-5-5--|

G|----------------------|
D|----------------------| 
A|----------------------|
E|--3-3--5-5--7-7--5-5--|

G|-----------|
D|----4-5----|
A|--5-----3--|
E|-----------|
    Wakas

Inaalay ko tong song  na to sa lahat ng  gumagawa palang ng mga banda. Sana suportahan
natin ang bandang pinoy. Maraming salamat.
Suggest correction
Give kudos to tab author, rate the tab!
1 2 3 4 5
comments
print report bad tab
1 comment total.
0 reply
Daniel M Andres 256 wrote on July 2 2008, 06:27 am

your version is much better! keep tabbing

guest
You may want to rate the tab now too:
select rating
Please do not post tabs as comments. Select "correction" instead!