Oops, an error
Loading. Please wait.

Jopay Tab

version 4
version 4

Whole song

Interactive

2,270 views 6 this week
no commentswrite comment
1 2 3 4 5
please rate
add to favorites
launch autoscroll
font size
0
reset
how to read this tab
guitar tuner
Autoscroll
slow
fast
+/-
esc
set tempo
stop
Help us to improve Ultimate-Guitar.com Take our survey!
×
Contributor
Greeting sa banda ko sa mapua, hehe bryck, ray, roj, james saka kay al.
sana mag-enjoy kyo d2, dpa tapos pero ok na rin, hindi ko pa kasi mkapa ung iba eh
mabuhay ang THE OTAPS!!!RoCK On!!!\m/

	Intro/Verse:
e|---------------------------------------------------------|
B|------------------0-----0--------------------0-----0-----|
G|--------0-------0---0-----0--------0-------0---0-----0---|
D|------4-------0-------0----------4-------0-------0-------|
A|--3/5-------3----------------3/5-------3-----------------|
E|---------------------------------------------------------|

		
e|-------------------------------------------------------------------|
B|-----------------0------------------0------------------3-0---3-0---|
G|--------0------0---0-------0------0---0-------0------0-----0-------|
D|------4------0-----------4------0-----------4------0---------------|
A|--3/5------3---------3/5------3---------3/5------3-----------------|
E|-------------------------------------------------------------------|

	Refrain:    Am -  Bm -  C  -  D
		e|-|0| - |2| - |0| - |2|
		B|-|1| - |3| - |1| - |3|
		G|-|2| - |4| - |0| - |2|
		D|-|2| - |4| - |2| - |0|
		A|-|0| - |2| - |3| - |0|
		E|-|x| - |x| - |0| - |0|

	Chorus:     G  -  Am -  Bm _ Am
		e|-|3| - |0| - |2| - |0|
		B|-|3| - |1| - |3| - |1|
		G|-|0| - |2| - |4| - |2|
		D|-|0| - |2| - |4| - |2|
		A|-|2| - |0| - |2| - |0|
		E|-|3| - |x| - |x| - |x|
comments
We did not receive enough feedback on this tab! Please rate:
print report bad tab
1 2 3 4 5
I want to post or [tab]
guest
You may want to rate the tab now too:
select rating
Please do not post tabs as comments. Select "correction" instead!