Oops, an error
Loading. Please wait.

Only Thing Bass Tab

272 views 1 this week
no commentswrite comment
1 2 3 4 5
please rate
add to favorites
launch autoscroll
font size
0
reset
guitar tuner
Autoscroll
slow
fast
+/-
esc
set tempo
stop
Help us to improve Ultimate-Guitar.com Take our survey!
×
Author
Band / Artist : MAYONNAISE  	
Song title : THE ONLY THING
ALBUM : MAYONNAISE

TABBED BY : DANIEL ANDRES
E MAIL : Nonong_18@hotmail.com



PAKI RATE..................




INTRO
 
G|---------------------------------------------|
D|---------------------------------------------|2x
A|---------------------------------------------|
D|---7-7-7--10-10-10--9-9---5-5----------------|

Verse

 Why are we here,
I can't accept the fact you're leaving me,
And i'm so ashamed.
God, can't you see
I've been blinded by the things that i can't even hear


G|---------------------------------------------|
D|---------------------------------------------|5x
A|---------------------------------------------|
D|---7-7-7--10-10-10--9-9---5-5----------------|

Pre - Chorus

Why?

G|-----------------------------------------|
D|-----------------------------------------|5x
A|-----------------------------------------|
D|----/3-3-3-3--5-5-5----------------------|


Chorus

Needless to say that i'm going for the kill
The beaty lies inside of you
And not where you think it is
I'm so preoccupied i don't know what to do
The only thing that i will miss when i die is you.

G|-------------------------------------------------------|
D|-------------------------------------------------------|2x
A|--5-5-5-5-5--0-0-0-0-0---------------------------------|
D|-----------------------7-7-7-7-7--3-3-3-3-3------------|

Adlib 1

G|---------------------------------------------|
D|---------------------------------------------|4x
A|---------------------------------------------|
D|---7-7-7--10-10-10--9-9---5-5----------------|

Verse

Why are we still
Climbing on mountains just for the thrill
Please help me here
I'm completely lost without you and i cannot kill

G|---------------------------------------------|
D|---------------------------------------------|5x
A|---------------------------------------------|
D|---7-7-7--10-10-10--9-9---5-5----------------|

Pre-Chorus

Why?

G|-----------------------------------------|
D|-----------------------------------------|5x
A|-----------------------------------------|
D|----/3-3-3-3--5-5-5----------------------|


Chorus

Needless to say that i'm going for the kill
The beaty lies inside of you
And not where you think it is
I'm so preoccupied i don't know what to do
The only thing that i will miss when i die is you.

G|-------------------------------------------------------|
D|-------------------------------------------------------|2x
A|--5-5-5-5-5--0-0-0-0-0---------------------------------|
D|-----------------------7-7-7-7-7--3-3-3-3-3------------|

Adlib 2


G|-------------------------------------------------------|
D|-------------------------------------------------------|2x
A|--5-5-5-5-5--0-0-0-0-0---------------------------------|
D|-----------------------7-7-7-7-7--3-3-3-3-3------------|

Verse 3


G|-------------------------------------------------------|
D|-------------------------------------------------------|2x
A|-------------------------------------------------------|
D|-11-11-11-11-9-9-9-9-13-13-13-13-11-11-11-11-----------|

G|-------------------------------------------------------|
D|-------------------------------------------------------|2x
A|-------------------------------------------------------|
D|--13-13-13-13-11-11-11-11--15-15-15-15--17-17-17-------|

Pre-Chorus

Why?

G|-----------------------------------------|
D|-----------------------------------------|5x
A|-----------------------------------------|
D|----/3-3-3-3--5-5-5----------------------|


Chorus

Needless to say that i'm going for the kill
The beaty lies inside of you
And not where you think it is
I'm so preoccupied i don't know what to do
The only thing that i will miss when i die is you.

G|-------------------------------------------------------|
D|-------------------------------------------------------|2x
A|--5-5-5-5-5--0-0-0-0-0---------------------------------|
D|-----------------------7-7-7-7-7--3-3-3-3-3------------|

Ending

G|-------------------------------------------------------|
D|-------------------------------------------------------|2x
A|--5-5-5-5-5--0-0-0-0-0---------------------------------|
D|-----------------------7-7-7-7-7--3-3-3-3-3------------|

G|---------------------------------------------|
D|---------------------------------------------|4x
A|---------------------------------------------|
D|---7-7-7--10-10-10--9-9---5-5----------------|




Paki Rate...................


Suggest correction
What's this?
You can suggest a correction to this tab. Community and Mods will review your correction and vote to approve or reject it.
comments
We did not receive enough feedback on this tab! Please rate:
print report bad tab
1 2 3 4 5
guest
You may want to rate the tab now too:
select rating
Please do not post tabs as comments. Select "correction" instead!