Oops, an error
Loading. Please wait.

Only Thing Tab

version 1
version 1

Solo

Whole song

1,314 views 1 this week
3 commentsread comments
1 2 3 4 5
x 4
add to favorites
launch autoscroll
font size
0
reset
how to read this tab
guitar tuner
Autoscroll
slow
fast
+/-
esc
set tempo
stop
Help us to improve Ultimate-Guitar.com Take our survey!
×
Song      : The Only Thing 
Band      : Mayonnaise 
Tabbed by : Brandon Philip Llapitan
E-add     : brandon_rakista@yahoo.com
Tuning    : Drop Db 

98% Correct! enjoy!

Solo:
Eb------------------------------------------------------------------|
Bb------------------------------------------------------------------|
Gb------------------------------------------------------------------|
Db-10/12-10---------------------------------------------------------|
Ab----------x-10h12-10--8-7-8-10------------------------------------|
Db-------------------------------10~-10/12-10-8-7--5-7-8--10-8-10~--|

Eb-----------------------------------------------------------------------|
Bb-----------------------------------------------------------------------|
Gb-12b14r12-10----10-12b14r12-12-10-12p10-14b15r14-12-10-12p10-14b15r14~-|
Db-------------12--------------------------------------------------------|
Ab-----------------------------------------------------------------------|
Db------------------------------------------- ---------------------------|

Eb----------------------------------------------------------|
Bb----------------------------------------------------------|
Gb-1717-1515-1414-1515-1414------14h15p14-12h14p12-12-1010~-|
Db--------------------------1515----------------------------|
Ab----------------------------------------------------------|
Bb----------------------------------------------------------|

Eb-----------------------------------x-13/15-13~-13-15p13--------------------------------------------|
Bb-----------------------x-11/13-11~----------------------15p13-------------------------13-----------|
Gb-----------x-10/12-10~----------------------------------------14-1212~-10-12p10-12p10----12p10-10~-|
Db-10/12-10~-----------------------------------------------------------------------------------------|
Ab---------------------------------------------------------------------------------------------------|
Db---------------------------------------------------------------------------------------------------|

Eb----------------------------------------------------------------------------------------------------------|
Bb-------------------13/15-13~-------------------13/15-13~-------------------13/15-13-15-15b16-15b16r15-13~-|
Gb-12b14r12-10----10-----------12b14r12-10----10-----------12b14r12-10----10--------------------------------|
Db-------------12--------------------------12--------------------------12-----------------------------------|
Ab----------------------------------------------------------------------------------------------------------|
Db----------------------------------------------------------------------------------------------------------|

Guitar Legend :

/ = slide
x = muted note
~ = vibrato
b = bend
r = release
h = hammer 
p = pull 
Suggest correction
comments
print report bad tab
3 comments total.
0 reply
paul21 618 Apr 23, 2007 03:47 AM

AStig to kuya.. Dba 2 guitars na po yung bandang last na ng solo.. parang nasa mbaba yung isa tapos yung isa mataas naman.. pakinggan mo.. 5twinkling stars for yah!!!

0 reply
brandon(KETE) 555 Apr 24, 2007 06:27 AM

umm oo.. pero pwede kang gumamit ng effects.. di q kc alam ung name nun e.. sa zoom 707 ,pt pdl un.. tnx sa pagrate..

0 reply
Daniel M Andres 256 Oct 16, 2008 11:02 PM

nice tab tol!!!!

guest
You may want to rate the tab now too:
select rating
Wanna post a correction for this tab? Suggest correction