Oops, an error
Loading. Please wait.

Only Thing Tab

version 3
version 3

Whole song

371 views 1 this week
no commentswrite comment
1 2 3 4 5
please rate
add to favorites
launch autoscroll
font size
0
reset
how to read this tab
guitar tuner
Autoscroll
slow
fast
+/-
esc
set tempo
stop
Help us to improve Ultimate-Guitar.com Take our survey!
×
Author
Band / Artist : MAYONNAISE      
Song title : THE ONLY THING
ALBUM : MAYONNAISE

TABBED BY : DANIEL ANDRES
E mail add : Nonong_18@hotmail.com




Paki rate.............





Intro 1:

Guitar 1

e-------------------------------------|
b-------------------------------------|
g-------------------------------------| 2*
D-------------------------------------|
A--9-9-9-12-12-12--11-11-7--7---------|
E-------------------------------------|

Guitar 2

ung guitar 2 will enter at second times......isang bagsak muna then enter

e------------------------------------------|
b------------------------------------------|
g------------------------------------------| 
D--7----12-12-12--15-15-15--14-14---10--10-|
A--7---------------------------------------|
E--5---------------------------------------|


Intro 2: Both guitar 1 and 2

e-------------------------------------|
b-------------------------------------|
g-------------------------------------| 2*
D--7--7--7--5--5--5--4--4--5--5-------|
A-----------3--3--3--2--2-------------|
E--5--5--5-----------------3--3-------|


Verse:

Why are we here,
i can't accept the fact you're leaving me,
and i'm so ashamed.
God, can't you see
I've been blinded by things that I can't even hear


Guitar 1 

e-------------------------------------|
b-------------------------------------|
g-------------------------------------| 2*
D--7--7--7--5--5--5--4--4--5--5-------|
A-----------3--3--3--2--2-------------|
E--5--5--5-----------------3--3-------|

Guitar 2 isang isang bagsak lang 

e-----------|
b-----------|
g-----------| 2*
D--7--------|
A--7--------|
E--5--------|


Pre- chorus:

Why?

Guitar 1

e---------------------------------|
b---------------------------------|
g---------------------------------| 2*
D--3--3--3--5--5------------------|
A---------------------------------|
E--1--1--1--3--3------------------|

Guitar 2

e---------------------------|
b---------------------------|
g---------------------------| 5*
D--3--3--3-----9--9---------|
A-------------11-11---------|
E--1--1--1------------------|


Chorus:

Needless to say that i'm going for the kill
the beauty lies inside of you
and not Where you think it is
i'm so preoccupied I don't know what to do
the only thing that I will misswhen i die is you.


Guitar 1 : C G A F 2x

Guitar 2 :

e----------------------|
b----------------------|
g----------------------| 2*
D---5--5---7---3-------|
A---3------------------|
E------3---5---1-------|


Adlib 1 :

Guitar 1

e-------------------------------------|
b-------------------------------------|
g-------------------------------------| 2*
D-------------------------------------|
A--9-9-9-12-12-12--11-11-7--7---------|
E-------------------------------------|

Guitar 2

e-------------------------------------|
b-------------------------------------|
g-------------------------------------| 2*
D--7--7--7--5--5--5--4--4--5--5-------|
A-----------3--3--3--2--2-------------|
E--5--5--5-----------------3--3-------|


Verse 2 

Why are we still
climbing on mountains just for the thrill
please help me here
I'm completely lost without you and I cannot kill

Guitar 1 

e-------------------------------------|
b-------------------------------------|
g-------------------------------------| 2*
D--7--7--7--5--5--5--4--4--5--5-------|
A-----------3--3--3--2--2-------------|
E--5--5--5-----------------3--3-------|

Guitar 2 isang isang bagsak lang 

e-----------|
b-----------|
g-----------| 2*
D--7--------|
A--7--------|
E--5--------|


Pre chorus the same din

why?

Guitar 1

e---------------------------------|
b---------------------------------|
g---------------------------------| 2*
D--3--3--3--5--5------------------|
A---------------------------------|
E--1--1--1--3--3------------------|

Guitar 2

e---------------------------|
b---------------------------|
g---------------------------| 5*
D--3--3--3-----9--9---------|
A-------------11-11---------|
E--1--1--1------------------|


Chorus 2  

Needless to say that i'm going for the kill
the beauty lies inside of you
and not Where you think it is
i'm so preoccupied I don't know what to do
the only thing that I will misswhen i die is you

Guitar 1 : C G A F 2x

Guitar 2 :

e----------------------|
b----------------------|
g----------------------| 2*
D---5--5---7---3-------|
A---3------------------|
E------3---5---1-------|


Adlib 2 : C G A F 2x


Verse 3:

Guitar 1

e-----------------------------------------------|
b-----------------------------------------------|
g-----------------------------------------------| 2*
D--7--5--9--7--9--7--10--12--(pause then)---5---|
A--5--3--7--5--7--5--8---10---(slide to)----3---|
E-----------------------------------------------|


Repeat pre chorus and chorus 

Why?

Guitar 1

e---------------------------------|
b---------------------------------|
g---------------------------------| 2*
D--3--3--3--5--5------------------|
A---------------------------------|
E--1--1--1--3--3------------------|

Guitar 2

e---------------------------|
b---------------------------|
g---------------------------| 5*
D--3--3--3-----9--9---------|
A-------------11-11---------|
E--1--1--1------------------|



Needless to say that i'm going for the kill
the beauty lies inside of you
and not Where you think it is
i'm so preoccupied I don't know what to do
the only thing that I will misswhen i die is you.

Guitar 1 : C G A F 2x

Guitar 2 :

e----------------------|
b----------------------|
g----------------------| 2*
D---5--5---7---3-------|
A---3------------------|
E------3---5---1-------|


Ending 1

Guitar 1 :C G A F 2x

Ending 2

 Both guitar 1 and 2

e-------------------------------------|
b-------------------------------------|
g-------------------------------------| 2*
D--7--7--7--5--5--5--4--4--5--5-------|
A-----------3--3--3--2--2-------------|
E--5--5--5-----------------3--3-------|







Paki rate.............


Suggest correction
What's this?
You can suggest a correction to this tab. Community and Mods will review your correction and vote to approve or reject it.
comments
We did not receive enough feedback on this tab! Please rate:
print report bad tab
1 2 3 4 5
guest
You may want to rate the tab now too:
select rating
Please do not post tabs as comments. Select "correction" instead!