Oops, an error
Loading. Please wait.

Panaginip Chords

2,894 views 12 this week
no commentswrite comment
1 2 3 4 5
3 more votes to show rating
add to favorites
launch autoscroll
font size
0
reset
transpose
0
reset
display chords
guitar tuner
Autoscroll
slow
fast
+/-
esc
set tempo
stop
Help us to improve Ultimate-Guitar.com Take our survey!
×
Author
Panaginip
By: Mayonnaise

Chords By: Vhokie Cantada

Dedicated to : Lileth De Guzman

Standard Tuning: E - A - D - G - B - E


      Fm           Cm           C#           G#
E|----1----|  |----3----|  |----4----|  |----4----|
B|----1----|  |----4----|  |----4----|  |----4----|
G|----1----|  |----5----|  |----6----|  |----5----|
D|----3----|  |----5----|  |----6----|  |----6----|
A|----3----|  |----3----|  |----4----|  |----6----|
E|----1----|  |----3----|  |----x----|  |----4----|


Intro: Solo
E|------------------------------------------|
B|-------4---------4------------------------|
G|------------------------------------------|
D|-1~s~3—--3~s~6-5---1~s~3-1---—------------|
A|------------------------------------------|
E|------------------------------------------|(2x Solo) (2x With Rhythm)

Intro : Fm - CmC# (2x With Intro Solo)


Verse 1:

Fm        Cm          C#        Fm       Cm         C#
   Bigla akong nawiwindang.       Wala namang tinatamasa.
 
Fm       Cm        C#           Fm      Cm         C#
   Ayoko ng isipin pa.           Bigla akong tinatamaan
   
Fm       Cm    C#...
   Ayoko na sayo.


Chorus:

  G#               Cm                   
Ayoko ng isipin. Ayoko ng ulitin. 

  Fm                      C#
Ayoko ng gumising sa king panaginip. panaginip


  G#               Cm                   
Ayoko ng isipin. Ayoko ng ulitin. 

  Fm                      C#
Ayoko ng gumising sa king panaginip. panaginip



Repeat Intro.



Verse 2:
Fm        Cm           C#       Fm         Cm            C#
  Wala ka bang ibang alam?        Isang anghel ay nasa lupa.

Fm      Cm            C#           Fm      Cm          C#
  Ayoko ng tingnan ka pa.            lalo akong napapa-asa

   Fm   Cm    C#...
  Ayoko na sayo.


Chorus:


  G#               Cm                   
Ayoko ng isipin. Ayoko ng ulitin. 

  Fm                      C#
Ayoko ng gumising sa king panaginip. panaginip


  G#               Cm                   
Ayoko ng isipin. Ayoko ng ulitin. 

  Fm                      C#
Ayoko ng gumising sa king panaginip. panaginip




Adlib : Fm ----- C# - Cm (2x)


 Fm ------ C# - Cm    
Ayoko………..                         

 Fm -------  C# - Cm  Fm -------  C# - Cm    Fm -------  C# - Cm - C#...    
Ayoko        na     sayo….. .


Repeat Chorus 3x



Last Part Lead

E|-----8---10---11---10---8-----------------|
B|---8---8----8----8----8-------------------|
G|------------------------------------------|
D|-----------------------------—------------|
A|------------------------------------------|
E|------------------------------------------|


This Chords Is Based on What I hear. Pls Let me Know If There Is Any Mistake. 
I’ll be happy for your comment. Pls. Rate.
Suggest correction
Give kudos to tab author, rate the tab!
1 2 3 4 5
comments
print report bad tab
guest
You may want to rate the tab now too:
select rating
Wanna post a correction for this tab? Suggest correction