Oops, an error
Loading. Please wait.

Pano Nangyari Yun Tab

1,303 views 3 this week
no commentswrite comment
1 2 3 4 5
x 3
add to favorites
launch autoscroll
font size
0
reset
how to read this tab
guitar tuner
Autoscroll
slow
fast
+/-
esc
set tempo
stop
Help us to improve Ultimate-Guitar.com Take our survey!
×
Song:Pano Nangyari Yun?
Album:Pano Nangyari Yun?
Artist:Mayonnaise
Date Tabbed:March,2007
Guitar Tabber:Ryan Manongdo/17/m/Montalban Rizal
              no_falter0x@yahoo.com(Friendster&YM)

 I would like o dedicate this song to Carla Viray again because I like her so much:,(
For your questions or suggestions,just post a comment or PM me.

Gtr.Legends:
~ - let it ring
x - dead string
. - palm muting
/ - slide
p - pull-off

Gtr.Tuning:Half-Step Down then Drop D(Alternative)

Intro prt.1:
Gtr.1
eb|-------------------------------------------------------------|
Bb|-----------------------------99--9999---------------999999---|
Gb|--------------------99--1111----------9999-11111111----------|
Db|-7-9999--6-7~---99-------------------------------------------|
Ab|-7-9999--6-7~---99-------------------------------------------|
Db|-7-9999--6-7~---99-------------------------------------------|
                   ..  ..   . . .. 

Gtr.2
eb|-------------------------------------------------------------|
Bb|-------------------------------------------------------------|
Gb|----------------------------------999999999999999999999999---|
Db|-7-9999--6-7~---99--PAUSE---------xxxxxxxxxxxxxxxxxxxxxxxx---|
Ab|-7-9999--6-7~---99----------------777777777777777777777777---|
Db|-7-9999--6-7~---99-------------------------------------------|

Intro prt.2:
Gtr.1
eb|-------------------------------------------|
Bb|-------------------------------------------|
Gb|-------------------------------------------|
Db|-9999-6666-777777---9999-6666-77777---9~---|
Ab|-9999-6666-777777---9999-6666-77777---9~---|
Db|-9999-6666-777777---9999-6666-77777---9~---|

Gtr.2
eb|--------------------------------------------|
Bb|--------------------------------------------|
Gb|-999999999999999999999999999999999999999~---|
Db|-xxxxxxxxxxxxxxxxxxxxxxxxxxxxxxxxxxxxxxx----|
Ab|-777777777777777777777777777777777777777~---|
Db|--------------------------------------------|


Verse 1:Mahal na kita...
eb|-----------------------------------      ------|
Bb|----2-0-----2-0------2-0-----2-0~--      ------|
Gb|----------------------------------- 4x   -4~---| 
Db|----------------------------------- Then -4~---|
Ab|-2~------2~-------0~-------0~------      -2~---|
Db|-----------------------------------      ------|

Gtr.2 Enters:Ang iyong...
eb|------------------      ------|
Bb|------------9999--      ------|
Gb|-9999-11111------- 4x   -4~---| 
Db|------------------ Then -4~---|
Ab|------------------      -2~---|
Db|------------------      ------|

Pre-Chorus:Dahan-dahan dumidilim...
Play Intro prt.2

Chorus:Pa'no  Nangyari Yun...
Gtr.1:Play Intro prt.2

Gtr.2
eb|----------------------------------------------|
Bb|----------------------------------------------|
Gb|-7777777/9999--8-6-4---777777/9999999999999---|
Db|-xxxxxxx-xxxx--x-x-x---xxxxxx-xxxxxxxxxxxxx---|
Ab|-6666666/7777--6-4-2---666666/7777777777777---|
Db|----------------------------------------------|

Pre-Verse 2:Pla Intro prt.1

Verse 2:Ikaw ang dahilan...
Repeat Verse 1

Repeat Pre-Chorus:

Repeat Chorus:

Bridge prt.1:
Gtr.1
eb|------------------------------------|
Bb|------------------------------------|
Gb|------------------------------------| 4x
Db|-99--99---66--66---77--77--77--77---|
Ab|-99--99---66--66---77--77--77--77---|
Db|-99--99---66--66---77--77--77--77---|

Gtr.2
eb|--------------------------------------------------------------|
Bb|--------------------------------9-9---------------------9-9---| Listen to the song for proper
Gb|-99-99--99--99-99---11-11-11-11------99-99-99-99--11-11-------| timing...
Db|--------------------------------------------------------------|
Ab|--------------------------------------------------------------|
Db|--------------------------------------------------------------|
    .. ..  ..  .. ..   .  .  .  .  . .  .. .. .. ..  .  .  . .

Bridge prt.2:Dahan-dahan dumidilim...
Chorus Effect
eb|-----------------------------------------|
Bb|-----------------------5-0---------------|
Gb|-11~--8~--9~---11~--8~-------------------|
Db|--9~--6~--7~----9~--6~-----77-77-77--7---|
Ab|--9~--6~--7~----9~--6~-----77-77-77--7---|
Db|--9~--6~--7~----9~--6~-----77-77-77--7---|
                              .. .. ..  .

Repeat Chorus:

Outro:
Gtr.1
eb|---------------------------------|
Bb|---------------------------------|
Gb|---------------------------------|
Db|-9-9-9-9--6-6-6-6--7-7-7-7-7-7---|
Ab|-9-9-9-9--6-6-6-6--7-7-7-7-7-7---|
Db|-9-9-9-9--6-6-6-6--7-7-7-7-7-7---|
    . . . .  . . . .  . . . . . .

eb|--------------------------------------------------------------------------|
Bb|--------------------------------------------------------------------------|
Gb|-4-4/6-66-88-99-8--4-4/6-66-88-99-8--9p8-9p8-9p8-9p8--8888--6p4-66-8-4~---|
Db|--------------------------------------------------------------------------|
Ab|--------------------------------------------------------------------------|
Db|--------------------------------------------------------------------------|

eb|--------------------------|
Bb|--------------------------|
Gb|--------------------------|
Db|--------------------------|
Ab|-4-2-4--4-2-4-4--2-4/5b---|
Db|-4-2-4--4-2-4-4--2-4/5b---|
               . .

End...

Pano Nangyari Yun Lyrics:

Verse 1
Mahal na kita
No’ng unang beses kong nakita
Ang iyong mga mata
Na kumikinang sa ganda

Pre-Chorus:
Dahan-dahan dumidilim
Ang utak ko’y kumikitid
Ang puso ko’y naninikip
Dahil lang sa iyong halik

Chorus
Pa’no nangyari ‘yon
At pa’no nangyari ‘yon
At pa’no nangyari ‘yon, ohh

Verse 2
Ikaw ang dahilan
Kung bakit ako nahihirapan
Wala na ‘kong magawa
Kundi maghintay rin sa kanya

Repeat Pre-Chorus

Repeat Chorus

Bridge:
Ohh ohh ohh ohh

Repeat Pre-Chorus

[repeat chorus] 
Suggest correction
Give kudos to tab author, rate the tab!
1 2 3 4 5
comments
print report bad tab
guest
You may want to rate the tab now too:
select rating
Wanna post a correction for this tab? Suggest correction