Oops, an error
Loading. Please wait.

Punk You Tab

version 1
version 1

Whole song

250 views 1 this week
no commentswrite comment
1 2 3 4 5
please rate
add to favorites
launch autoscroll
font size
0
reset
how to read this tab
guitar tuner
Autoscroll
slow
fast
+/-
esc
set tempo
stop
Help us to improve Ultimate-Guitar.com Take our survey!
×
Author
Standard Tuning: EADGBe

Intro 1:
 Guitar 1:				
  e|-----------------||----------|	
  B|--0~0h3p0h3~0h3--||----------|   ~ = pindutin nio lng ung fret
  G|-----------------||--4~4~4~4-|4x	wag nio istrum
  D|-----------------||--4~4~4~4-|
  A|-----------------||--2~2~2~2-|
  E|-----------------||----------|

 Guitar 2:(rhythm w/ distortion)
  e|--------| (enter on the 3rd time)
  B|--------|
  G|---4~---|2x	  ~ = let it ring
  D|---4~---|
  A|---2~---|
  E|--------|

Intro 2:
 Guitar 1:				Guitar 2:(palm-muted)
  e|--7-7-6-4----------------|   e|-------|
  B|----------7-5-5-4-5-4-5--|   B|-------| (up and down strum lng
  G|-------------------------|4x G|---4---|  sa guitar 2 hanggang
  D|-------------------------|   D|---4---|  matapos ung intro 2) 
  A|-------------------------|   A|---2---|
  E|-------------------------|   E|-------|

 Bass Guitar:
  G|------------------------------------------------| (pakinggan nio ung 
  D|------------------------------------------------|  song para sa timing
  A|--2-2-2-2-2-2-2-2-2/14-14-14-14-14-14-14-14-14--|  ng bass.. slide back
  E|------------------------------------------------| from 14 to 2)

Intro 3:
 Guitar 1:
  e|-----------|
  B|-----------|   (mabilis ung part na toh)
  G|--4--------|8x
  D|--4--6--2--|
  A|--2--6--2--|
  E|-----4--0--|

 Bass Guitar:
  G|----------------------|
  D|----------------------|8x
  A|--2-2-2---------------|
  E|--------4-4-4--0-0-0--|

Verse 1:
 Guitar 1:(palm-muted)     / = up strum,    \ = down strum
  e|--------------------------------------------------------------------|
  B|--------------------------------------------------------------------|
  G|-4-4-4-4-4-4-4-4----------------------------------------------------|2x 
  D|-4-4-4-4-4-4-4-4--2-2-2-2-2-2-2-2--6-6-6-6-6-6-6-6--4-4-4-4-4-4-4-4-|
  A|-2-2-2-2-2-2-2-2--2-2-2-2-2-2-2-2--6-6-6-6-6-6-6-6--4-4-4-4-4-4-4-4-|
  E|------------------0-0-0-0-0-0-0-0--4-4-4-4-4-4-4-4--2-2-2-2-2-2-2-2-|
     \ / \ / \ / \ /  \ / \ / \ / \ /  \ / \ / \ / \ /  \ / \ / \ / \ /

 Guitar 2:(w/ distortion)
  e|-----------|
  B|-----------|
  G|--4----6---|2x
  D|--4----6---|
  A|--2----4---|
  E|-----------|

 Bass:
  G|--------------------------------------------------------------------|
  D|--------------------------------------------------------------------|2x
  A|-2-2-2-2-2-2-2-2----------------------------------------------------|
  E|------------------0-0-0-0-0-0-0-0--4-4-4-4-4-4-4-4--2-2-2-2-2-2-2-2-|

Chorus:
 Guitar 1:(w/ distortion)
  e|-------|
  B|-------| (puro up and down strum lng ung guitar 1..
  G|---4---|	maingay ung part na toh..)
  D|---4---|
  A|---2---|
  E|-------|

 Guitar 2:
  e|--------------|
  B|--4-6-4-------| (papasok sia after ng "everything in this life"..)
  G|--------6-5b--| b = bend
  D|--------------|
  A|--------------|
  E|--------------|

 Bass:
  G|--------------------------------------------------------------------|
  D|--------------------------------------------------------------------|4x
  A|-----------------------------------2-2-2-2-2-2-2-2------------------|
  E|-4-4-4-4-4-4-4-4--0-0-0-0-0-0-0-0-------------------2-2-2-2-2-2-2-2-|

Repeat Intro 3

Verse 2:
 Bass:(rhythm)
  G|--------------------------------------------------------------------|
  D|--------------------------------------------------------------------|2x
  A|-2-2-2-2-2-2-2-2----------------------------------------------------|
  E|------------------0-0-0-0-0-0-0-0--4-4-4-4-4-4-4-4--2-2-2-2-2-2-2-2-|

 Guitar 1:
  e|------|
  D|------|    ~ = let it ring
  G|--4~--|2x  (pakinggan nio na lng ung timing)
  B|--4~--|
  A|--2~--|
  E|------|

 Guitar 2:
  e|----------|
  D|---18\1---|  (play nio after ng "on the attic"..)
  G|----------|  
  B|----------|	 \ = slide 
  A|----------|
  E|----------|

Repeat Chorus

Repeat Intro 2

Repeat Chorus

Repeat Intro 3

End on  e|------|  
        B|------|  ~ = let it ring
        G|--4~--|
        D|--4~--|
        A|--2~--|
        E|------|



Suggest correction
Give kudos to tab author, rate the tab!
1 2 3 4 5
comments
print report bad tab
guest
You may want to rate the tab now too:
select rating
Please do not post tabs as comments. Select "correction" instead!