Oops, an error
Loading. Please wait.

Punk You Tab

version 2
version 2

Whole song

115 views 1 this week
no commentswrite comment
1 2 3 4 5
please rate
add to favorites
launch autoscroll
font size
0
reset
how to read this tab
guitar tuner
Autoscroll
slow
fast
+/-
esc
set tempo
stop
Help us to improve Ultimate-Guitar.com Take our survey!
×
Contributor
Band / Artist : Mayonnaise      
Song title : Punk u
Album : Mayonnaise


Tabbed : Daniel M Andres.............Nonong_18@hotmail.com

Paki Rate


Intro 1: 

Guitar 1: G

e|------------|   
B|------------|   
G|------------| 6x
D|-----5------|   
A|------------|   
E|-----3------|   

Guitar 2: D

e|----2---2-2------2----2--2--|   |---2-2-2-2-2------|
B|---3----3-3-----3-----3--3--|   |---3-3-3-3-3------|
G|--2-----2-2----0------0--0--|2x |------------------|Palm mute lang to
D|----------------------------|   |------------------|
A|----------------------------|   |------------------|
E|----------------------------|   |------------------|


Intro 2:

Guitar 1: G

e|------------|   
B|------------|   
G|------------| 6x
D|-----5------|   
A|------------|   
E|-----3------|   


Guitar 2:

e|----------------------------------------------|   
B|-12-12-11-9-7--7-5-4--5p4--5p4--5-------------|   
G|----------------------------------------------| 3x
D|----------------------------------------------|   
A|----------------------------------------------|   
E|----------------------------------------------| 

e|---------------------------7777777777---------|   
B|-12-12-11-9-(pause a sec.)--------------------|   
G|----------------------------------------------| 
D|----------------------------------------------|   
A|----------------------------------------------|   
E|----------------------------------------------|   

Intro 3: both guitar 1 and 2

e|--------------|   
B|--------------|   
G|--------------| 4x
D|-7---5---4----|   
A|-5------------|   
E|-----3---2----|   
  
Verse : D G Bm A

 And as i see the day,
A brand new story.
And then i seize the day,
Beyond the glory.


e|---------------------------------------|   
B|---------------------------------------|   
G|---------------------------------------| 2x
D|--7-----------5---------4---------7----|   
A|--5---------------------2--------------|   
E|--------------3-------------------5----| 

Chorus : Bm G D A

It feels so good to realize
That everything in this life,
Will be ok will be alright,
Everything will be just fine.
And then i called you from the dark,
I'll be finished when you start...
So goodbye.

e|---------------------------------------|   
B|---------------------------------------|   
G|---------------------------------------| 3x
D|--4-----------5---------7---------7----|   
A|--2---------------------5--------------|   
E|--------------3-------------------5----| 

Adlib : both guitar 1 and 2

e|--------------|   
B|--------------|   
G|--------------| 6x
D|-7---5---4----|   
A|-5------------|   
E|-----3---2----| 

Verse : D G Bm A

 And then i look at you,
You look dissapointed.
And then i hear your voice
Across the attic.

e|---------------------------------------|   
B|---------------------------------------|   
G|---------------------------------------| 2x
D|--7-----------5---------4---------7----|   
A|--5---------------------2--------------|   
E|--------------3-------------------5----| 

Chorus : Bm G D A

It feels so good to realize
That everything in this life,
Will be ok will be alright,
Everything will be just fine.
And then i called you from the dark,
I'll be finished when you start...
So goodbye. 

e|---------------------------------------|   
B|---------------------------------------|   
G|---------------------------------------| 3x
D|--4-----------5---------7---------7----|   
A|--2---------------------5--------------|   
E|--------------3-------------------5----|   

Adlib 2:

Guitar 1: G

e|------------|   
B|------------|   
G|------------| 6x
D|-----5------|   
A|------------|   
E|-----3------|   


Guitar 2:

e|----------------------------------------------|   
B|-12-12-11-9-7--7-5-4--5p4--5p4--5-------------|   
G|----------------------------------------------| 3x
D|----------------------------------------------|   
A|----------------------------------------------|   
E|----------------------------------------------| 

e|---------------------------7777777777---------|   
B|-12-12-11-9-(pause a sec.)--------------------|   
G|----------------------------------------------| 
D|----------------------------------------------|   
A|----------------------------------------------|   
E|----------------------------------------------|   
  


Chorus : Bm G D A

It feels so good to realize
That everything in this life,
Will be ok will be alright,
Everything will be just fine.
And then i called you from the dark,
I'll be finished when you start...
So goodbye.

e|---------------------------------------|   
B|---------------------------------------|   
G|---------------------------------------| 3x
D|--4-----------5---------7---------7----|   
A|--2---------------------5--------------|   
E|--------------3-------------------5----|   

Ending : both guitar 1 and 2

e|--------------|   
B|--------------|   
G|--------------| 6x
D|-7---5---4----|   
A|-5------------|   
E|-----3---2----| 

e|-------------------|   
B|-------------------|   
G|-------------------| 4x
D|-7---9---11--13----|   
A|-5---7---9---11----|   
E|-------------------| 

e|---------------------|   
B|---------------------|   
G|---------------------| 4x
D|-7---9---11--13--/7--|   
A|-5---7---9---11--/5--|   
E|---------------------| 


Paki Rate
Suggest correction What's this?
You can suggest a correction to this tab. Community and Mods will review your correction and vote to approve or reject it.
comments
We did not receive enough feedback on this tab! Please rate:
print report bad tab
1 2 3 4 5
I want to post or [tab]
guest
You may want to rate the tab now too:
select rating
Please do not post tabs as comments. Select "correction" instead!