Oops, an error
Loading. Please wait.

Sinungaling Bass Tab

1,635 views 12 this week
no commentswrite comment
1 2 3 4 5
please rate
add to favorites
launch autoscroll
font size
0
reset
guitar tuner
Tab Pro tools
  • play this tab
  • loop segment
  • change instrument
  • show fretboard
  • metronome
×
Best way to learn
"Sinungaling"
Autoscroll
slow
fast
+/-
esc
set tempo
stop
Contributor
Band / Artist :MAYONNAISE
Song title : SINUNGALING
ALBUM : TERSERA

TABBED BY : Daniel M. Andres
E mail add : Nonong_18@hotmail.com

PAKI RATE..............


INTRO:

G|---------------------------------------------|
D|-0-0-0--------------------3---3-3p0----------|3x
A|--------1--1-1---/3-3--3---------------------|
D|---------------------------------------------|

G|----------------------------------------|
D|-0-0-0----------------------------------|
A|--------1--1-1--------------------------|
D|--------------------3----3-3P1--1-1-1---|

VERSE:

G|--------------------------------------------|
D|--------------------------------------------|4x
A|-1-1-1-1-1-1---/5-5-5-5-5--/3-3-3-3---------|
D|--------------------------------------------|

GUITAR 2(lead): tuloy tuloy lang hanggang matapos ung verse

e:----------------------------------------------------------------|
B:----------------------------------------------------------------|
G:--5/10-9p10p9--5-5/10-9p10p9-7--5/10-9p10p9--5/10-9p10/12-p10---|
D:----------------------------------------------------------------|
A:----------------------------------------------------------------|
E:----------------------------------------------------------------|

PRE CHORUS:

G|-----------------------------------------|
D|-----------------------------------------|
A|-9-9-9-9-9-9-/5-5-5-5-5-5--7-7-7-7-------|
D|-----------------------------------------|

Chorus:

G|---------------------------------------------------------------------------------|
D|---------------------------------------------------------------------------------|
A|---------------------------------------------------------------------------------|
D|-5-5-5-5-5-5--/12-12-12-12-12--/9-9-9-9-9-9--10-10-10-10-10-/12-12-12(slide up---|

GUITAR 2(lead):Tuloy tuloy lang hanggang matapos ung chorus

e:-------------------------------------------------|
B:---10-9p10-9--------10-9p10-9--------------------|
G:-9----------9-9-9-------------11-----------------|
D:-------------------------------------------------|
A:-------------------------------------------------|
E:-------------------------------------------------|


ADLIB 1:

G|---------------------------------------------|
D|-0-0-0--------------------3---3-3p0----------|
A|--------1--1-1---/3-3--3---------------------|
D|---------------------------------------------|

G|----------------------------------------|
D|-0-0-0----------------------------------|
A|--------1--1-1--------------------------|
D|--------------------3----3-3P1--1-1-1---|

REPEAT VERSE and PRE CHORUS

Chorus:

G|---------------------------------------------------------------------|
D|---------------------------------------------------------------------|
A|---------------------------------------------------------------------|
D|-5-5-5-5-5-5--/12-12-12-12-12--/9-9-9-9-9-9--10-10-10-10-10----------|

G|---------------------------------------------------------------------|
D|---------------------------------------------------------------------|
A|---------------------------------------------------------------------|
D|-5-5-5-5-5-5--/12-12-12-12-12--/9-9-9-9-9-9--10-10-10-10-10----------|

G|---------------------------------------------|
D|---------------------------------------------|
A|---------------------------------------------|
D|-12-12-12-12-12-12-12-12-(slide up)----------|

GUITAR 2(lead):Tuloy tuloy lang hanggang matapos ung chorus

e:-------------------------------------------------|
B:---10-9p10-9--------10-9p10-9--------------------|
G:-9----------9-9-9-------------11-----------------|
D:-------------------------------------------------|
A:-------------------------------------------------|
E:-------------------------------------------------|


ADLIB 2:

G|---------------------------------------------|
D|-0-0-0--------------------3---3-3p0----------|3x
A|--------1--1-1---/3-3--3---------------------|
D|---------------------------------------------|

G|----------------------------------------|
D|-0-0-0----------------------------------|
A|--------1--1-1--------------------------|
D|--------------------3----3-3P1--1-1-1---|

G|----------------------------------------------------------------------|
D|----------------------------------------------------------------------|
A|----------------------------------------------------------------------|
D|-/7-7-77-7-7--/9-99-9999-/11-11-11-11-11-/13-13-13-13-13-13-----------|

--/15-15-15-15-/(slide up)---------|

REPEAT CHORUS and then ending is the same with INTRO

PAKI RATE.......................
comments
We did not receive enough feedback on this tab! Please rate:
print report bad tab
1 2 3 4 5
I want to post or [tab]
guest
You may want to rate the tab now too:
select rating
Please do not post tabs as comments. Select "correction" instead!