Oops, an error
Loading. Please wait.

Sinungaling Tab

version 1
version 1

Whole song

9,296 views 3 this week
1 commentread comment
1 2 3 4 5
accurate
x 3
add to favorites
launch autoscroll
font size
0
reset
how to read this tab
guitar tuner
Autoscroll
slow
fast
+/-
esc
set tempo
stop
Help us to improve Ultimate-Guitar.com Take our survey!
×
Title: Sinungaling
Artist: Mayonnaise
Album: Tersera

For any comments and suggestions:

Text Me: 09198408399
Friendster: boybassista@yahoo.com


Drum -roll

Intro:

Guitar 2:              Guitar 1:
e----------------------|-------4-3----6-4-3------------4--3-----------|
b----------------------|-----4-----66------3--------4-------44--------|
g---5----------88-88---|-3-5-------------------3-5--------------3/5---|
D---5--66--88--88-88---|----------------------------------------------|
A---3--66--88--66-66---|----------------------------------------------|
E------44--66----------|----------------------------------------------|

Verse:

Guitar 2:
Kahit na ......            Itutuloy....           Lumilipad....
e-----------------------|-----------------------|--------------------|
e----------5555---3333--|--------5555---3333----|--------5555--33333-|
e---6666---5555---3333--|--6666--5555---3333----|--6666--5555--33333-|
e---6666---3333---1111--|--6666--3333---1111----|--6666--3333--11111-|
e---4444----------------|--4444-----------------|--4444--------------|

Sumisilip....             
e-----------------------|-----------------------|--------------------|
e----------5555---3333--|--------5555---3333----|--------5555--33333-|
e---6666---5555---3333--|--6666--5555---3333----|--6666--5555--33333-|
e---6666---3333---1111--|--6666--3333---1111----|--6666--3333--11111-|
e---4444----------------|--4444-----------------|--4444--------------|

Guitar 1: (riff)
 Lumilipad.......
e------------------------------------|
b---4-3p4p3-----4-3p4-1-----4-5/6\5--|
g-3---------3-3---------3-3----------|
D------------------------------------|
A------------------------------------|
E------------------------------------|

Sumisilip.... ..
e------------------------------------|
b---4-3p4p3-----4-3p4-1-----4-5/6\5--|
g-3---------3-3---------3-3----------|
D------------------------------------|
A------------------------------------|
E------------------------------------|

Refrain:

Guitar 2:
Di mo makita...              
e------------------------|
b------------------------|
g------------------------|
D-333----6666---88888----|
A-3333---6666---88888----|
E-1111---4444---66666----|

Chorus: 
Sinungaling,...                         Guitar 1 (riff)
e---------------------------------|-----------------------------|
b---------------------------------|--4-3p4p3---4-3p4p3--4-3p4p3-|
g--8888--5555------------33333----|-3---------3--------3--------|
D--8888--5555---3333-----33333----|-----------------------------|
A--6666--3333---33333----111111---|-----------------------------|
E---------------11111-------------|-----------------------------|

Interlude:

e----------------------------------|
b----------------------------------|
g--6------------88---6----------88-|
D--6---66---88--88---6--66--88--88-|
A--4---66---88--66---4--66--88--66-|
E------44---66----------44--66-----|

Verse:
Ilang beses...            Wala ka nang..           Tuloy-tuloy....
e-----------------------|-----------------------|--------------------|
e----------5555---3333--|--------5555---3333----|--------5555--33333-|
e---6666---5555---3333--|--6666--5555---3333----|--6666--5555--33333-|
e---6666---3333---1111--|--6666--3333---1111----|--6666--3333--11111-|
e---4444----------------|--4444-----------------|--4444--------------|

Guitar 1: (riff)
 Tuloy-tuloy....
e------------------------------------|
b---4-3p4p3-----4-3p4-1-----4-5/6\5--|
g-3---------3-3---------3-3----------|
D------------------------------------|
A------------------------------------|
E------------------------------------|

Sana lang...
e------------------------------------|
b---4-3p4p3-----4-3p4-1-----4-5/6\5--|
g-3---------3-3---------3-3----------|
D------------------------------------|
A------------------------------------|
E------------------------------------|

Refrain:

Guitar 2:
Di mo makita...              
e------------------------|
b------------------------|
g------------------------|
D-333----6666---88888----|
A-3333---6666---88888----|
E-1111---4444---66666----|

Chorus: 

Sinungaling,...                         Guitar 1 (riff)
e---------------------------------|-----------------------------|
b---------------------------------|--4-3p4p3---4-3p4p3--4-3p4p3-|
g--8888--5555------------33333----|-3---------3--------3--------|
D--8888--5555---3333-----33333----|-----------------------------|
A--6666--3333---33333----111111---|-----------------------------|
E---------------11111-------------|-----------------------------|

Interlude:

e----------------------------------|
b----------------------------------|
g--6------------88---6----------88-|
D--6---66---88--88---6--66--88--88-|
A--4---66---88--66---4--66--88--66-|
E------44---66----------44--66-----|

Adlib: Cm-Ab-Bb-Eb (3x)switch Eb to Bb
       CmAb-Bb-Eb


Suggest correction
Give kudos to tab author, rate the tab!
1 2 3 4 5
comments
print report bad tab
1 comment total.
0 reply
code_geass925 10 wrote on November 9 2015, 02:17 am

yun mas precise

guest
You may want to rate the tab now too:
select rating
Wanna post a correction for this tab? Suggest correction