Oops, an error
Loading. Please wait.

Synesthesia Tab

version 3
version 3

Whole song

7,237 views 21 this week
no commentswrite comment
1 2 3 4 5
3 more votes to show rating
add to favorites
launch autoscroll
font size
0
reset
how to read this tab
guitar tuner
Autoscroll
slow
fast
+/-
esc
set tempo
stop
Help us to improve Ultimate-Guitar.com Take our survey!
×
Difficulty
novice
Intro:

|----------------------------19---|-------------------------------19------|
|------17--------------17------17-|---------17--------------17------17----|
|---16---16----16----16---16------|------16---16----16----16---16---------|
|-19---------19----19-------------|---19---------19-----19----------------|
|---------------------------------|---------------------------------------|
|---------------------------------|---------------------------------------|

|----------------------------19---|---------------------------------------|
|------17--------------17------17-|-----17--17--17--17--17-17171717-------|
|---16----16--------16----16------|---------------------------------------|
|-19------------19----------------|---19--19--19--19--19---19191919-------|
|---------------------------------|---------------------------------------|
|---------------------------------|---------------------------------------|



rhythm
 G-D-Em-C

|---3333---222--------------------|
|---3333---333---------111--------|
|----------222--------------------|
|----------------222--------------|
|---2222---------222---222--------|
|---3333---------------333--------|


|-------12-10-9-------12-10-9--------------------------------------|
|--9~------------12~-----------10~---10-12-14-12~---9-10-12-10-----|
|------------------------------------------------------------------|
|------------------------------------------------------------------|
|------------------------------------------------------------------|
|------------------------------------------------------------------|


Verse I: Em-D-C
|---------222--------------------|
|---------333---111--------------|
|---------222--------------------|  8x
|---222---------222--------------|
|---222---------333--------------|
|--------------------------------|

Chorus: G-D-Em-C

|---3333---222--------------------|
|---3333---333---------111--------|
|----------222--------------------|
|----------------222--------------|
|---2222---------222---222--------|
|---3333---------------333--------|

Gamitin nyu nlng po yung chords sa verse I sa mga verse..kakatamad na kc..
Paki rate din po..first tab q po 2...tnx.. :)
Suggest correction
Give kudos to tab author, rate the tab!
1 2 3 4 5
comments
print report bad tab
guest
You may want to rate the tab now too:
select rating
Wanna post a correction for this tab? Suggest correction