Oops, an error
Loading. Please wait.

Synesthesia Tab

version 4
version 4

Whole song

1,412 views 1 this week
no commentswrite comment
1 2 3 4 5
please rate
add to favorites
launch autoscroll
font size
0
reset
how to read this tab
guitar tuner
Autoscroll
slow
fast
+/-
esc
set tempo
stop
Help us to improve Ultimate-Guitar.com Take our survey!
×
Author
Band / Artist : Mayonnaise
Song title : Synesthesia
Tunning: Double Dropped D(DADGBD)
Tabbed By: Alvin Galvez
This song is for Jezza Zaratan Bravo. She really likes this song.Paki take note po ung
tuning natin. . .
Ung last string po e D.Guitar double dropped D tuning ata to. Diskarte niyo na lun ung
strum. Madidinig niyo naman ung sa mga part na may tuloy tuloy na 8th notes ang
strumming(one half count) . .ung lyrics sa baba eh sakto ung timing ng chords jan. Email 
me. . . galvezalvin@rocketmail.com
Most of all. . . enjoy po playing this beautiful song kahit na di ako maxadong cgurado
for sure sa lyrics ;)

CHORDS USED:

      D          F#m           E
D|----0-----------0------------0---------------------------|
B|----3-----------0------------0---------------------------|
G|----2-----------2------------1---------------------------|
D|----0-----------4------------0---------------------------|
A|----x-----------4------------2---------------------------|
D|----x-----------x------------x---------------------------|



Intro:
  D      F#m      D           F#m
D|---------------------5-7-7s9-7-5-4-5s7-5-----------------|
B|-3-1-0----3-1-0------------------------------------------|
G|-------2--------0----------------------------------------|
D|---------------------------------------------------------|
A|---------------------------------------------------------|
D|---------------------------------------------------------|

  D      F#m      D           F#m
D|---------------------5-7-7s9-7-5-4-5s7-5-----------------|
B|-3-1-0----3-1-0------------------------------------------|
G|-------2--------0----------------------------------------|
D|---------------------------------------------------------|
A|---------------------------------------------------------|
D|---------------------------------------------------------|


Intro:

D  F#m  D  F#m 2x


Verse 1

(used chords above . . .)
F#m    E    D
Save your smile

F#m        E               D
Everything fades through time

F#m      E     D
Im lost for words


    F#m          E            D
D|--0------------x------------0-----------------|
B|--0------------5------------0-----------------|
G|--2------------4------------7-----------------|
D|--4------------6------------7-----------------|
A|--4------------7------------5-----------------|
E|--x------------x------------------------------|

(use these chords for this part. . .)

F#m         E          D
Endlessly waiting for you

(chords above. . .)
F#m    E    D
Stay with me

F#m           E         D
Yes I know, this cannot be..

F#m    E    D
As Morning Comes,

    F#m          E            D
D|--0------------x------------0-----------------|
B|--0------------5------------0-----------------|
G|--2------------4------------7-----------------|
D|--4------------6------------7-----------------|
A|--4------------7------------5-----------------|
E|--x------------x------------------------------|

(used these chords for this line)

F#m                E           D
I say good bye to you when I'm done ...

    E            E
D|--0------------0------------------------------|
B|--0------------0------------------------------|
G|--1------------1------------------------------|
D|--0------------2------------------------------|
A|--2------------2------------------------------|
E|--x------------x------------------------------|

(every 1 count,quarter note, palit ng chord)

 E-E-E-E
 to the Sun


CHORUS:

         D               E               F#m
Because I’m waiting for you, waiting for this..

               E                     D
Dream to come true, just to be with you.

          E                  F#m
And if I die, remember this line..

             E                  F#m   E
"Im always here, guarding your life...

(one stum po each chord this part)
               F#m-E-D
 guarding your life...


VERSE 2 (same to verse 1 po)

I am yours
And I'm completely trapped in your soul
Dazed and Confused
Swept away with your whole world.
You're my star
Invincible,haunting and far
Grace under fire
Something is deep in my heart, in my heart.


REPEAT CHORUS

VERSE 3 (same din po dun sa verse 1)
F#m      E        D
Slowly falling into you


I'm obsessed with the fact that I'm with you

F#m       E              F#m     E-E-E-E     D
I can't breathe without you.ohhhhhhoooo....ohoh

REPEAT CHORUS EXCEPT ung guarding your life na line

OUTRO:
     F#m E F#m-E-D
life ohhhhhhoooo
Suggest correction
What's this?
You can suggest a correction to this tab. Community and Mods will review your correction and vote to approve or reject it.
comments
We did not receive enough feedback on this tab! Please rate:
print report bad tab
1 2 3 4 5
guest
You may want to rate the tab now too:
select rating
Please do not post tabs as comments. Select "correction" instead!