Oops, an error
Loading. Please wait.

Torres Chords

version 1
version 1

Whole song

27,627 views 69 this week
1 commentread comment
1 2 3 4 5
1 last vote to show rating
add to favorites
launch autoscroll
font size
0
reset
transpose
0
reset
display chords
guitar tuner
Autoscroll
slow
fast
+/-
esc
set tempo
stop
Help us to improve Ultimate-Guitar.com Take our survey!
×
Author
[Intro]
e|---1-------------------------------------|
B|-----2h4h2-------------------------------|
G|-----------------------------------------| x2
D|-----------------------------------------|
A|-----------------------------------------|
E|-----------------------------------------|

[Verse 1]
F#mEbm   C#
Hindi ka ba nalulungkot
F#mEbm   C#
Sa pag-iba ng panahon
F#mEbm   C#
Sariwa pa sa puso ko
F#mEbm
Mahal kita….

[Chorus]
C#   Bbm Fm
Nalulungkot sa pag-alis
 F#   C#
Hindi na tayo tulad ng dati
   BbmFm
Napupuno ka ng pait
 F#   C#
Hindi na tayo tulad ng dati

[Verse 2]
Wala na ba ang tamis
(sayo ako ba’y may pag-asa)
Wala na bang mababawi
(sa bawat oras na wala ka)
Hindi ka ba nalulunod
(sariwa pa ang lahat, hindi makakaangat)
Sa luha ko

[Chorus]
C#   Bbm Fm
Nalulungkot sa pag-alis
 F#   C#
Hindi na tayo tulad ng dati
   BbmFm
Napupuno ka ng pait
 F#   Bbm
Hindi na tayo tulad ng dati

[Adlib]
Bbm  C#G#
Nagmumukmok sa isang tabi
  F#   Bbm
Sana naman ‘wag magagalit
   C#B---C#
Oh ‘wag ka ng mawawala…

[Instrumental] x4
e|---1-------------------------------------|
B|-----2h4h2-------------------------------|
G|-----------------------------------------| x2
D|-----------------------------------------|
A|-----------------------------------------|
E|-----------------------------------------|

F# Ebm
Mamamatay nako…
C#   Bbm Fm
Nalulungkot sa pag-alis
 F#   C#
Hindi na tayo tulad ng dati
   BbmFm
Napupuno ka ng pait
 F#   C#
Hindi na tayo tulad ng dati
   BbmFm
Napupuno… (tulad ng dati)
F#   C#
Ka ng pait… (tulad ng dati)
 Bbm Fm-F#
Nalulungkot… (tulad ng dati…)

[Outro] x6
e|---1-------------------------------------|
B|-----2h4h2-------------------------------|
G|-----------------------------------------| x2
D|-----------------------------------------|
A|-----------------------------------------|
E|-----------------------------------------|
Suggest correction
Give kudos to tab author, rate the tab!
1 2 3 4 5
comments
print report bad tab
1 comment total.
0 reply
noelg04 10 Apr 09, 2014 09:56 PM

dapat naka half step tuning from standard yung gitara mo it was really played in the chords of G tapos D,Bm,A,G yung chorus..learn how to tune your guitar in a standard way!

guest
You may want to rate the tab now too:
select rating
Wanna post a correction for this tab? Suggest correction