Oops, an error
Loading. Please wait.

Torres Tab

10,169 views 9 this week
no commentswrite comment
1 2 3 4 5
please rate
add to favorites
launch autoscroll
font size
0
reset
how to read this tab
guitar tuner
Autoscroll
slow
fast
+/-
esc
set tempo
stop
Help us to improve Ultimate-Guitar.com Take our survey!
×
Song title :TORRES
Band/Artist:MAYONNAISE
Album: TERSERA


TABBED BY: Daniel M. Andres        Nonong_18@hotmail.com

BEAUTIFUL SONG........easy to learn....... plss rate this tab

INTRO:

e---4-------------------------------------|
b-----5h7h5------9--5h7h5-----------------|
g-----------------------------------------| 2*
D-----------------------------------------|
A-----------------------------------------|
E-----------------------------------------|


Verse 1: G C

e---4-------------------------------------|
b-----5h7h5------9--5h7h5-----------------|
g-----------------------------------------| 6*
D-----------------------------------------|
A-----------------------------------------|
E-----------------------------------------|

Chorus: G D Bm7 C

e|--------------------------------------------|
B|--------------------------------------------|
G|-------7-------5----------------------------|
D|---5---7---9---5----------------------------|
A|---5---5---9---3----------------------------|
E|---3-------7--------------------------------|


ADLIB 1:

e---4-------------------------------------|
b-----5h7h5------9--5h7h5-----------------|
g-----------------------------------------| 2*
D-----------------------------------------|
A-----------------------------------------|
E-----------------------------------------|

VERSE 2: G A

e---4-------------------------------------|
b-----5h7h5------9--5h7h5-----------------|
g-----------------------------------------| 6*
D-----------------------------------------|
A-----------------------------------------|
E-----------------------------------------|


CHORUS: G D Bm7 C

e|--------------------------------------------|
B|--------------------------------------------|
G|-------7-------5----------------------------|
D|---5---7---9---5----------------------------|
A|---5---5---9---3----------------------------|
E|---3-------7--------------------------------|


LAST CHORUS: G D Bm7 C

e|--------------------------------------------|
B|--------------------------------------------|
G|-------7-------5----------------------------|
D|---5---7---9---5----------------------------|
A|---5---5---9---3----------------------------|
E|---3-------7--------------------------------|


ENDING:

e---4-------------------------------------|
b-----5h7h5------9--5h7h5-----------------|
g-----------------------------------------|
D-----------------------------------------|
A-----------------------------------------|
E-----------------------------------------|


e---4-------------------------------------|
b-----5h7h5------9--5h9-------------------|
g-----------------------------------------|
D-----------------------------------------|
A-----------------------------------------|
E-----------------------------------------|


AYOS TO!
Suggest correction
Give kudos to tab author, rate the tab!
1 2 3 4 5
comments
print report bad tab
guest
You may want to rate the tab now too:
select rating
Please do not post tabs as comments. Select "correction" instead!