Oops, an error
Loading. Please wait.

Blue Light Tab

15,735 views 54 this week
no commentswrite comment
1 2 3 4 5
x 7
add to favorites
launch autoscroll
font size
0
reset
how to read this tab
guitar tuner
Autoscroll
slow
fast
+/-
esc
set tempo
stop
Help us to improve Ultimate-Guitar.com Take our survey!
×
#----------------------------------PLEASE NOTE---------------------------------#
#This file is the author's own work and represents their interpretation of the #
#song. You may only use this file for private study, scholarship, or research. #
#------------------------------------------------------------------------------##
#

#----------------------------------PLEASE NOTE---------------------------------#
#This file is the author's own work and represents their interpretation of the #
#song. You may only use this file for private study, scholarship, or research. #
#------------------------------------------------------------------------------#

Date: Thu, 28 Nov 1996 00:27:05 EST
From: Brian F Mojica 
Subject: TAB: BLUE LIGHT by Mazzy Star

Blue Light
(Sandoval/Roback)
from the album "So Tonight That I Might See"
tabbed by Brian Mojica 
lyrics courtesy of Kevin Jenkins

h = hammer on
p = pull off
/ = slide up
\ = slide down
~ = vibrato
^ = bend (half-, full-, two-steps etc. specified)
rb=release bend

Intro:
 B             A             E             E
|-------------|-------------|-------------|-------------|
|-------------|-------------|-------------|-------------|
|-------4-----|-------2-----|-------1-----|-------1-----|
|-----4---4---|-----2---2---|-----2---2---|-----2---2---|
|---6-------6-|---4-------0-|---2-------2-|---2-------0-|
|-7-----------|-5-----------|-0-----------|-0-----------|

 B             A             E             C#m
|-------------|-------------|-------------|-------------|
|-------------|-------------|-------------|-------5-----|
|-------4-----|-------2-----|-------1-----|-----6---6---|
|-----4---4---|-----2---2---|-----2---2---|---6-------0-|
|---6-------6-|---4-------0-|---2-------2-|-------------|
|-7-----------|-5-----------|-0-----------|-------------|

B              E             E
|-------------|-------------|-------------|
|-------4-----|-------------|-------------|
|-----4---4---|-------2-2-2-|-1-----------|
|---4-------4-|-----2---2-2-|-2-----------|
|-------------|---1-----2-2-|-2-----------|
|-7-----------|-0-------0-0-|-0-----------|

Verses:(strum for second and third verses)
B             A             E             E
|-------------|-------------|-------------|-------------|
|-------------|-------------|-------------|-------------|
|-------4-----|-------2-----|-------1-----|-------1-----|
|-----4---4---|-----2---2---|-----2---2---|-----2---2---|
|---6-------6-|---4-------0-|---2-------2-|---2-------0-|
|-7-----------|-5-----------|-0-----------|-0-----------|

 B             A             E             E
|-------------|-------------|-------------|-------------|
|-------------|-------------|-------------|-------------|
|-------4-----|-------2-----|-------1-----|-------1-----|
|-----4---4---|-----2---2---|-----2---2---|-----2---2---|
|---6-------6-|---4-------0-|---2-------2-|---2-------0-|
|-7-----------|-5-----------|-0-----------|-0-----------|

 B             A             E             C#m
|-------------|-------------|-------------|-------------|
|-------------|-------------|-------------|-------5-----|
|-------4-----|-------2-----|-------1-----|-----6---6---|
|-----4---4---|-----2---2---|-----2---2---|---6-------0-|
|---6-------6-|---4-------0-|---2-------2-|-------------|
|-7-----------|-5-----------|-0-----------|-------------|

 B             E             E
|-------------|-------------|-------------|
|-------4-----|-------------|-------------|
|-----4---4---|-------2-2-2-|-1-----------|
|---4-------4-|-----2---2-2-|-2-----------|
|-------------|---1-----2-2-|-2-----------|
|-7-----------|-0-------0-0-|-0-----------|

solo:
 B                 A                      E                    C#m
|-----------------|----------------------|--------------------|------9------------|
|-----------------|----------------------|--------------------|--------12------12-|
|-------------4---|----------------------|---------------9-11-|-11^f------11^f----|
|---------4h6---4-|----------2h4-2h4p2-2-|-2--------9h11------|-------------------|
|-----4h6---------|------2h4-------------|--------------------|-------------------|
|/7---------------|-/5-------------------|--------------------|-------------------|

 E                     B                               E           E
|---------------------|-------------------------------|------9----|---------------|
|---------------------|-------------------------------|--------12-|---------12-12-|
|-11rb-9---------9h11-|-9h11p9-------------------9h11-|-9---------|-11^f----------|
|-----------9h11------|--------11-9---------9h11------|-----------|---------------|
|---------------------|-------------11-9h11-----------|-----------|---------------|
|---------------------|-------------------------------|-----------|---------------|

 B
|-------------------------|
|-------------------------|
|-11rb--------------------|
|-------------------------|
|-------------------------|
|-------------------------|

solo2:
 B        A                    E                        C#m
|--------|------------------9-|------------------------|-------------------------|
|--------|--------------------|-12--------12-----------|-------------------------|
|--------|------9-11-11^f-----|----11^f------11^f-11^f-|-11^f-11rb-9---9h11-9h11-|
|--------|-9h11---------------|------------------------|-------------------------|
|--------|--------------------|------------------------|-------------------------|
|--------|--------------------|------------------------|-------------------------|

 E                    B                E                    E
|--------------------|----------------|--------------------|--------9----|
|--------------------|-------------12-|--------------------|----------12-|
|-9h11p9--------9h11-|-11^f---11^f----|-11rb-9--------9h11-|-9-----------|
|--------9-9h11------|----------------|----------9h11------|-------------|
|--------------------|----------------|--------------------|-------------|
|--------------------|----------------|--------------------|-------------|

 E             E             E
|-------------|-------------|----------||
|--------12-9-|--------12-9-|----------||
|-11^f--------|-11^f--------|-11^f-----||
|-------------|-------------|----------||
|-------------|-------------|----------||
|-------------|-------------|----------||


There's a blue light
In my best friend's room
There's a blue light
In his eye
There's a blue light, yeah
I want to see it
Shine

There's a ship
That sails by my window
There's a ship that sails on by
There's a world under it
I think I see it
Sailing away

A            E
 I think it's sailing
A                   B
 Miles crashing me by
A           E    C#m   E   B
 Crashing me by
E
 Crashing me by

There's a world
Outside my doorstep
Flames over
Everyone's hot
Don't you see them shining
I want to hear them
Beating for me

A         E
 I think I hear them
A                   B
 Waves crashing me by
A           E    C#m   E   B
 Crashing me by
E
 Crashing me by
Suggest correction
comments
print report bad tab
guest
You may want to rate the tab now too:
select rating
Wanna post a correction for this tab? Suggest correction