Oops, an error
Loading. Please wait.

Into Dust Tab

version 3
version 3

Whole song

Interactive

Video

143,025 views 234 this week
10 commentsread comments
1 2 3 4 5
excellent!
x 61
add to favorites
launch autoscroll
font size
0
reset
how to read this tab
guitar tuner
Autoscroll
slow
fast
+/-
esc
set tempo
stop
Help us to improve Ultimate-Guitar.com Take our survey!
×
Author
[Intro]

e|-----------------------------------------------------------------------------------|
B|------3---3-----3---3----3---3----3---3--------------------------------------------|
G|--------2---------2--------2--------2----------------------------------------------|
D|---0---------0---------0--------0--------------------------------------------------|
A|-----------------------------------------------------------------------------------|
E|-----------------------------------------------------------------------------------|


[Verse]

e|-----------------------------------------------------------------------------------|
B|------3---3-----3---3----3---3----3---3-----3---3-----3---3-----3---3-----3---3----|
G|--------2---------2--------2--------2---------0---------0---------0---------0------| x12
D|---0---------0---------0--------0--------------------------------------------------|
A|-----------------------------------------3---------3---------2---------2-----------|
E|-----------------------------------------------------------------------------------|


[Break 1]

1:59 Play Once Then Back To Verses

e|-----------------------------------------------------------------------------------|
B|------3---3-----3---3-----3---3-----3---3-----3---3-----3---3-----3---3-----3---3--|
G|--------2---------2---------2---------2---------0---------0---------0---------0----|
D|---0---------0---------0---------0---------3---------3---------2---------2---------|
A|-----------------------------------------------------------------------------------|
E|-----------------------------------------------------------------------------------|


[Verse]

e|-----------------------------------------------------------------------------------|
B|------3---3-----3---3----3---3----3---3-----3---3-----3---3-----3---3-----3---3----|
G|--------2---------2--------2--------2---------0---------0---------0---------0------| x6
D|---0---------0---------0--------0--------------------------------------------------|
A|-----------------------------------------3---------3---------2---------2-----------|
E|-----------------------------------------------------------------------------------|


[Break 2]

3:19 Play Once Then Back To Verses 

e|-----------------------------------------------------------------------------------|
B|------3---3-----3---3-----3---3-----3---3------------------------------------------|
G|--------0---------0---------0---------0--------------------------------------------|
D|-----------------------------------------------------------------------------------|
A|---1---------1---------1---------1-------------------------------------------------|
E|-----------------------------------------------------------------------------------|


[Verse]

e|-----------------------------------------------------------------------------------|
B|------3---3-----3---3----3---3----3---3-----3---3-----3---3-----3---3-----3---3----|
G|--------2---------2--------2--------2---------0---------0---------0---------0------| x8
D|---0---------0---------0--------0--------------------------------------------------|
A|-----------------------------------------3---------3---------2---------2-----------|
E|-----------------------------------------------------------------------------------|


[Outro]

5:02

e|----------------------------7------7------------------------------|
B|—--3/8-----------8----------------8------8--------------8---------|
G|--------------------7----------------------------7----------------|
D|------------------------------------------------------------------|
A|---------5--------------------------------------------------------|
E|------------------------------------------------------------------|

e|---------------------------5--------5-----------------------------|
B|---------------6----------------6--------6-------------6----------|
G|--------------------5----------------------------5----------------|
D|------------------------------------------------------------------|
A|---------3--------------------------------------------------------|
E|------------------------------------------------------------------|

e|----------------------------7-------7-------7---------------------|
B|---------------8----------------8-------8------8------------------|
G|-------------------7----------------------------------------------|
D|------------------------------------------------------------------|
A|---------5--------------------------------------------------------|
E|------------------------------------------------------------------|

e|----------------------------5---------------------5---------------|
B|---------------6-----------------6----------6----------6----------|
G|--------------------5------------------5--------------------------|
D|------------------------------------------------------------------|
A|---------3--------------------------------------------------------|
E|------------------------------------------------------------------|


[End]

e|----------|
B|----------|
G|----------|
D|----0-----|
A|----------|
E|----------|
Suggest correction
comments
print report bad tab
10 comments total. Showing first comments.
0 reply
roborob 10 wrote on October 21 2005, 09:29 pm

i also heard it on the OC

0 reply
oskarr 10 wrote on June 19 2006, 08:10 am

this is good , thank you .

0 reply
Heather D 40 wrote on August 29 2006, 11:15 am

nice tab! just saw that episode on e4... brilliant

guest
You may want to rate the tab now too:
select rating
Please do not post tabs as comments. Select "correction" instead!