Oops, an error
Loading. Please wait.

Into Dust Tab

version 5
version 5

Whole song

Interactive

Video

8,888 views 12 this week
2 commentsread comments
1 2 3 4 5
excellent!
x 4
add to favorites
launch autoscroll
font size
0
reset
how to read this tab
guitar tuner
Tab Pro tools
  • play this tab
  • loop segment
  • change instrument
  • show fretboard
  • metronome
Autoscroll
slow
fast
+/-
esc
set tempo
stop
Contributor
Difficulty
novice
-------------------------------------------------------------------------------
                             Into Dust - Mazzy Star
-----------------------------------------------------------------------------

Tabbed by:Benjamin Gibson
Email: Ben_Potter_Gibson@Hotmail.co.uk


Tuning: Standard


This Song has already been tabbed out brilliantly but I wanted to tab it so you could 
along with it. As you know she starts singing at weird intervals, this'll just show you 
to stop and start.


Chords Used

   D  C D/B D/A# C* D*
E|----------------------|
A|----3--2---1----------|
D|-0-------------3--2---|
G|-2--0--0---0---0--0---|
B|-3--3--3---3---3--3---|
e|----------------------|


Intro
    D
E|----------------------------------------------------------------------|
A|----------------------------------------------------------------------|
D|--0-------0-------0-------0-------------------------------------------|
G|------2-------2-------2-------2---------------------------------------|
B|----3---3---3---3---3---3---3---3-------------------------------------|
e|----------------------------------------------------------------------|
    D                                C               D/B
E|----------------------------------------------------------------------|
A|-----------------------------------3-------3-------2-------2----------|
D|--0-------0-------0-------0-------------------------------------------|
G|------2-------2-------2-------2--------0-------0-------0-------0------|
B|----3---3---3---3---3---3---3---3----3---3---3---3---3---3---3---3----|
e|----------------------------------------------------------------------|
    D                                C               D/B
E|----------------------------------------------------------------------|
A|-----------------------------------3-------3-------2-------2----------|
D|--0-------0-------0-------0-------------------------------------------|
G|------2-------2-------2-------2--------0-------0-------0-------0------|
B|----3---3---3---3---3---3---3---3----3---3---3---3---3---3---3---3----|
e|----------------------------------------------------------------------|


Verse one
    D                                C               D/B
E|----------------------------------------------------------------------|
A|-----------------------------------3-------3-------2-------2----------|
D|--0-------0-------0-------0-------------------------------------------|
G|------2-------2-------2-------2--------0-------0-------0-------0------|
B|----3---3---3---3---3---3---3---3----3---3---3---3---3---3---3---3----|
e|----------------------------------------------------------------------|X9

D

C  D/B   D
Still   falling
C             D/B   D
 Breathless and on  again
C   D/B   D
 Inside today
C     D/B   D
Inside me today
C       D/B       D
 Around broken in two
         C        D/B    D
Til your eyes share into dust
         C         D/B          D
Like two strangers turning into dust
         C         D/B               D
Til my hand shook with the weight of fear


Solo One

    C*              D*               D
E|-----------------------------------------------------------------------|
A|-----------------------------------------------------------------------|
D|--3-------3-------2-------2--------0-------0-------0-------0-----------|
G|------0-------0-------0-------0--------2-------2-------2-------2-------|
B|----3---3---3---3---3---3---3---3----3---3---3---3---3---3---3---3-----|
e|-----------------------------------------------------------------------|

    C               D/B               D
E|-----------------------------------------------------------------------|
A|--3-------3-------2-------2--------------------------------------------|
D|----------------------------------0-------0-------0-------0------------|
G|------0-------0-------0-------0-------2-------2-------2-------2--------|
B|----3---3---3---3---3---3---3---3---3---3---3---3---3---3---3---3------|
e|-----------------------------------------------------------------------|


Verse Two
    C               D/B               D
E|-----------------------------------------------------------------------|
A|--3-------3-------2-------2--------------------------------------------|
D|----------------------------------0-------0-------0-------0------------|
G|------0-------0-------0-------0-------2-------2-------2-------2--------|
B|----3---3---3---3---3---3---3---3---3---3---3---3---3---3---3---3------|
e|-----------------------------------------------------------------------|x4

    C               D/B             D/A#
E|-----------------------------------------------------------------------|
A|--3-------3-------2-------2-------1-------1-------1-------1------------|
D|-----------------------------------------------------------------------|
G|------0-------0-------0-------0-------0-------0-------0-------0--------|
B|----3---3---3---3---3---3---3---3---3---3---3---3---3---3---3---3------|
e|-----------------------------------------------------------------------|x7


C        D/B         D
 I could possibly be fading
   C    D/B               D
Or have something more to gain
        C         D/B       D
I could feel myself growing colder
        C         D/B          D
I could feel myself under your fate
C    D/B  D/A#   D     C     D/B   
D
      Under your fate
       C    D/B            D
It was you, breathless and torn
        C           D/B           D
I could feel my eyes turning into dust
     C          D/B          D
Into strangers, turning into dust
C         D/B   D
  Turning into dust


Solo Two

E|-------------------------------------------|
A|-------------------------------------------|
D|-------------------------------------------|
G|-----7----------7-------5--------5---------|
B|--8-----8---8-----8/6-----6---6----6-------|
e|----------7---7-------5-----5---5----------|x2

end on open D string.

************************************

| /   slide up
| \   slide down
| h   hammer-on
| p   pull-off
| ~   vibrato
| +   harmonic
| x   Mute note
| b   Bend
| pb  Pre-bend
| br  Bend release
| pbr Pre-bend release
| brb Bend release bend

************************************
comments
print report bad tab
2 comments total.
0 reply
Lizardk101 wrote on September 20 2011, 05:41 pm

   D  C D/B D/A# C* D*
e|----------------------|
B|-3--3--3---3---3--3---|
G|-2--0--0---0---0--0---|
D|-0-------------3--2---|
A|----3--2---1----------|
E|----------------------|

Intro
D
e|----------------------------------------------------------------------|
B|----3---3---3---3---3---3---3---3-------------------------------------|
G|------2-------2-------2-------2---------------------------------------|
D|--0-------0-------0-------0-------------------------------------------|
A|----------------------------------------------------------------------|
E|----------------------------------------------------------------------|

D C D/B
e|----------------------------------------------------------------------|
B|----3---3---3---3---3---3---3---3----3---3---3---3---3---3---3---3----|
G|------2-------2-------2-------2--------0-------0-------0-------0------|
D|--0-------0-------0-------0-------------------------------------------|
A|-----------------------------------3-------3-------2-------2----------|
E|----------------------------------------------------------------------|

D C D/B
e|----------------------------------------------------------------------|
B|----3---3---3---3---3---3---3---3----3---3---3---3---3---3---3---3----|
G|------2-------2-------2-------2--------0-------0-------0-------0------|
D|--0-------0-------0-------0-------------------------------------------|
A|-----------------------------------3-------3-------2-------2----------|
E|----------------------------------------------------------------------|

Verse one
D C D/B
e|----------------------------------------------------------------------|X9
B|----3---3---3---3---3---3---3---3----3---3---3---3---3---3---3---3----|
G|------2-------2-------2-------2--------0-------0-------0-------0------|
D|--0-------0-------0-------0-------------------------------------------|
A|-----------------------------------3-------3-------2-------2----------|
E|----------------------------------------------------------------------|

C D/B D
Still falling
C D/B D
Breathless and on again
C D/B D
Inside today
C D/B D
Inside me today
C D/B D
Around broken in two
C D/B D
Til your eyes share into dust
C D/B D
Like two strangers turning into dust
C D/B D
Til my hand shook with the weight of fear

Solo One

C* D* D
e|-----------------------------------------------------------------------|
B|----3---3---3---3---3---3---3---3----3---3---3---3---3---3---3---3-----|
G|------0-------0-------0-------0--------2-------2-------2-------2-------|
D|--3-------3-------2-------2--------0-------0-------0-------0-----------|
A|-----------------------------------------------------------------------|
E|-----------------------------------------------------------------------|

C D/B D
e|-----------------------------------------------------------------------|
B|----3---3---3---3---3---3---3---3---3---3---3---3---3---3---3---3------|
G|------0-------0-------0-------0-------2-------2-------2-------2--------|
D|----------------------------------0-------0-------0-------0------------|
A|--3-------3-------2-------2--------------------------------------------|
E|-----------------------------------------------------------------------|

Verse Two
C D/B D
e|-----------------------------------------------------------------------|x4
B|----3---3---3---3---3---3---3---3---3---3---3---3---3---3---3---3------|
G|------0-------0-------0-------0-------2-------2-------2-------2--------|
D|----------------------------------0-------0-------0-------0------------|
A|--3-------3-------2-------2--------------------------------------------|
E|-----------------------------------------------------------------------|

C D/B D/A#
e|-----------------------------------------------------------------------|x7
B|----3---3---3---3---3---3---3---3---3---3---3---3---3---3---3---3------|
G|------0-------0-------0-------0-------0-------0-------0-------0--------|
D|-----------------------------------------------------------------------|
A|--3-------3-------2-------2-------1-------1-------1-------1------------|
E|-----------------------------------------------------------------------|

C D/B D
I could possibly be fading
C D/B D
Or have something more to gain
C D/B D
I could feel myself growing colder
C D/B D
I could feel myself under your fate
C D/B D/A# D C D/B
D
Under your fate
C D/B D
It was you, breathless and torn
C D/B D
I could feel my eyes turning into dust
C D/B D
Into strangers, tu

0 reply
Lizardk101 wrote on September 20 2011, 05:42 pm

 D/B          D
Into strangers, turning into dust
C D/B D
Turning into dust

Solo Two
e|----------7---7-------5-----5---5----------|x2
B|--8-----8---8-----8/6-----6---6----6-------|
G|-----7----------7-------5--------5---------|
D|-------------------------------------------|
A|-------------------------------------------|
E|-------------------------------------------|

end on open D string.

I want to post or [tab]
guest
You may want to rate the tab now too:
select rating
Please do not post tabs as comments. Select "correction" instead!