Oops, an error
Loading. Please wait.

Teenage Lust Bass Tab

by MC5
19 views 1 this week
no commentswrite comment
1 2 3 4 5
3 more votes to show rating
add to favorites
launch autoscroll
font size
0
reset
guitar tuner
Autoscroll
slow
fast
+/-
esc
set tempo
stop
Help us to improve Ultimate-Guitar.com Take our survey!
×
Verse 1
G-------------------|-------------------|-------------------|-------------------|
D------5-5----------|------5-5----------|------5-5----------|------5-5----------|
A-3/5------3/5--3-3-|-3/5------3/5--3-3-|-3/5------3/5--3-3-|-3/5------3/5--3-3-|
E-------------------|-------------------|-------------------|-------------------|

PreChorus
G---------------------------------------|
D---------------------------------------|
A-3-3-3-3-3-3-3-3-3-3-3-3-3-3-3-3---5---|
E---------------------------------------|

Chorus
G-0-0-0-0---------0-0-0-0---------|
D---------3-3-3-3---------3-3-3-3-|
A---------------------------------|
E---------------------------------|

G-------------------------|-------------------------|
D-------5-5-5-------------|-------5-5-5-------------|
A-3/5---------3/5---3-3-3-|-3/5---------3/5---3-3-3-|
E-------------------------|-------------------------|

Verse 2
G-------------------|-------------------|-------------------|-------------------|
D------5-5----------|------5-5----------|------5-5----------|------5-5----------|
A-3/5------3/5--3-3-|-3/5------3/5--3-3-|-3/5------3/5--3-3-|-3/5------3/5--3-3-|
E-------------------|-------------------|-------------------|-------------------|

PreChorus
G---------------------------------------|
D---------------------------------------|
A-3-3-3-3-3-3-3-3-3-3-3-3-3-3-3-3---5---|
E---------------------------------------|

Chorus
G-0-0-0-0---------0-0-0-0---------|
D---------3-3-3-3---------3-3-3-3-|
A---------------------------------|
E---------------------------------|

Bridge             ("I Really Need...")
G-----------------|--------------------------------------------------------------|
D-----------------|------------------------------------5-5-----5-5-----5-5-----5-|
A-5-5-5-5-6-6-6-6-|-7-7--7-7--8-8--8-8--7-7--7-7--8-8------8-------8-------8-----|
E-----------------|--------------------------------------------------------------|

Solo
G-------------------|-------------------|-------------------|-------------------|
D------5-5----------|------5-5----------|------5-5----------|------5-5----------|
A-3/5------3/5--3-3-|-3/5------3/5--3-3-|-3/5------3/5--3-3-|-3/5------3/5--3-3-|
E-------------------|-------------------|-------------------|-------------------|

G-------------------|-------------------|-------------------|-------------------|
D------5-5----------|------5-5----------|------5------------|------5------------|
A-3/5------3/5--3-3-|-3/5------3/5--3-3-|-3/5------3/5--3---|-3/5------3/5--3---|
E-------------------|-------------------|-------------------|-------------------|

Verse 3 
G-------------------|-------------------|-------------------|-------------------|
D------7-7----------|------7-7----------|------7-7----------|------7-7----------|
A-5/7------5/7--5-5-|-5/7------5/7--5-5-|-5/7------5/7--5-5-|-5/7------5/7--5-5-|
E-------------------|-------------------|-------------------|-------------------|

PreChorus
G---------------------------------------|
D---------------------------------------|
A-5-5-5-5-5-5-5-5-5-5-5-5-5-5-5-5---7---|
E---------------------------------------|

Final Chorus/Outro
G---------0-0-0-0---------0-0-0-0-|---------0-0-0-0---------0-0-0-0-|---------0-0-0-0---------0-0-0-0-|
D-7-7-7-7---------7-7-7-7---------|-7-7-7-7---------7-7-7-7---------|-7-7-7-7---------7-7-7-7---------|
A---------------------------------|---------------------------------|---------------------------------|
E---------------------------------|---------------------------------|---------------------------------|

G---------------------------------------------------------------------------------------------|
D-7-7-7-7-7-7-7-7-7-7-7-7-7-7-7-7-7-7-7-7-7-7-7-7-7-7-7------7----------7--------7----7-------|
A---------------------------------------------------------------------------------------------|
E---------------------------------------------------------------------------------------------|
Suggest correction
Give kudos to tab author, rate the tab!
1 2 3 4 5
comments
print report bad tab
guest
You may want to rate the tab now too:
select rating
Wanna post a correction for this tab? Suggest correction