Oops, an error
Loading. Please wait.

Livin At The Corner Of Dude And Catastrophe bass

945 views 1 this week
2 commentsread comments
1 2 3 4 5
3 more votes to show rating
add to favorites
×
Save as Personal and add changes to this tab that will be seen only by you. Learn more ›
×
You can save this tab as Personal to edit and correct it or add notes. All changes will be seen only by you. Learn more »
launch autoscroll
font size
0
reset
guitar tuner
edit
Autoscroll
slow
fast
+/-
esc
set tempo
stop
Author
Song Name: Livin' at the Corner of Dude and Catastrophe
Artist: MC Frontalot f/ Brad Sucks
Tuning: Standard (EADG)
Tabbed by: Mephysteaux

Note: When you're playing parts back to back, the E note that ends one part will 
also begin the next

Intro Part 1 x1
G--------0---------02---4-2-0------|
D-2--02----2--0--02-----------2522-|
A----------------------------------|
E----------------------------------|

Intro Part 2 x 2
G--------0-------02------4-2-0------|
D-2--------2-0-02--------------2522-|
A-----------------------------------|
E-----------------------------------|

Verse 1 x 5
G--------0----------02--02----4--0-------|
D-2--02--------2--02----------------2522-|
A----------------------------------------|
E----------------------------------------|

Rest until Chorus

Chorus x 2
G--------0-------02--02--4-2-0------|
D-2--02----2-0-02--------------2522-|
A-----------------------------------|
E-----------------------------------|

Verse 2 x 4
G----------------02--02--02--02--020----------------02--02--4-2-0--0---|
D-2--02-02----202-------------------202--02--02--202--------------2-02-|
A----------------------------------------------------------------------|
E----------------------------------------------------------------------|

Chorus x 4
G--------0-------02--02--4-2-0------|
D-2--02----2-0-02--------------2522-|
A-----------------------------------|
E-----------------------------------|

http://frontalot.com/index.php/

            
            
Suggest correction
Creating personal tab
Creating personal tab
You can edit any tab online and save it as your Personal.

You can edit, replace or remove any tab part or add personal notes – all changes will be seen only by you.

Personal tabs can be accessed anytime from any device, even offline.
Learn more »
Give kudos to tab author, rate the tab!
1 2 3 4 5
comments
print report bad tab
2 comments total.
0 reply
rayshon 40 Oct 22, 2009 05:59 AM

WHERE IM LIVIN ITS HARD TO SAY

0 reply
System Error 10 Aug 03, 2010 09:34 PM

From my quick, 30-second glance of it, your tab looks about right. I tabbed this song a string lower.

http://frontalot.com/bbs/viewtopic.php?t=2081&highlight=

guest
You may want to rate the tab now too:
select rating
Wanna post a correction for this tab? Suggest correction