Oops, an error
Loading. Please wait.

You Cant Touch This tab

version 1
version 1

Whole song

Interactive

53,150 views 78 this week
7 commentsread comments
1 2 3 4 5
x 34
add to favorites
×
Save as Personal and add changes to this tab that will be seen only by you. Learn more ›
×
You can save this tab as Personal to edit and correct it or add notes. All changes will be seen only by you. Learn more »
launch autoscroll
font size
0
reset
how to read this tab
guitar tuner
edit
Autoscroll
slow
fast
+/-
esc
set tempo
stop
Author
Difficulty
Unregistered
e|-----------------|                    e|----------------|
B|-----------------|                    B|----------------|
G|-7-5-4-2-----4-2-| main               G|----------------|
D|-7-5-4-2-2-5-4-2-| my version version D|----------------|normal
A|-5-3-2-0-2-5-2-0-|                    A|-5-3-2-0----2-0-|
E|---------0-3-----|                    E|---------0-3----|

[Break]
e|----------8p7p5-------|
B|7-7-----7------7------|
G|--------<-reapeat x3->|
D|----------------------| reapeat x3
A|----------------------|
E|----------------------|

            
            
Suggest correction
Creating personal tab
Creating personal tab
You can edit any tab online and save it as your Personal.

You can edit, replace or remove any tab part or add personal notes – all changes will be seen only by you.

Personal tabs can be accessed anytime from any device, even offline.
Learn more »
comments
print report bad tab
7 comments total. Showing first comments.
0 reply
Super Slinky PJ 81 May 17, 2006 11:48 AM

It's more like this,
e|-----------------------------------------
B|--3----------------------3---------------
G|--2----------------------2---------------
D|--0----------------------0---------------
A|----3-2-0-----2-0--0-0-0---3-2-0-----2-0-
E|----------0-2--------------------0-2-----

0 reply
metal_shredder 30 Dec 10, 2006 04:15 PM

no the original sounds better.good tab

0 reply
fender_bullet 10 Aug 02, 2007 10:01 PM

wow dude the original sounds much better. I really like the normal version cus its real bassy like like the real one. Even though i play guitar this will be a great song to teach our new basses! :) its fun to play but i think that your main way is a little to power chordy (guitar like) it needs to be more bassy and the normal version is perfect so thx! :)

guest
Wanna post a correction for this tab? Suggest correction