Oops, an error
Loading. Please wait.

Igeneration bass

by MC Lars
572 views 1 this week
1 commentread comment
1 2 3 4 5
x 3
add to favorites
×
Save as Personal and add changes to this tab that will be seen only by you. Learn more ›
×
You can save this tab as Personal to edit and correct it or add notes. All changes will be seen only by you. Learn more »
launch autoscroll
font size
0
reset
guitar tuner
edit
Autoscroll
slow
fast
+/-
esc
set tempo
stop
Author
Difficulty
Simple song.

Verse:
G|--------------------------------|--------------------------------|
D|----------------5---5-----------|------------------5---4---3---2-|
A|6-6--6--1---1-----------5---6---|6-6--6--1---1-------------------|
E|--------------------------------|----------------3---2---1---0---|

Chorus:

G|--------------------------------|--------------------------------|
D|--------------------------------|--------------------------------|
A|--------6---6---3---3-----------|--------6---6---3---3-----------|
E|--4--4------------------3---4---|--4--4------------------3---4---|

G|------------------5---5---------|--------------------------------|
D|--------------------------5---6-|--------------------------------|
A|--------6---6---3---3-----------|--------6---6---3---3-----------|
E|--4--4------------------3---4---|--4--4------------------3---4---|

The breakdown has no bass.

            
            
Suggest correction
Creating personal tab
Creating personal tab
You can edit any tab online and save it as your Personal.

You can edit, replace or remove any tab part or add personal notes – all changes will be seen only by you.

Personal tabs can be accessed anytime from any device, even offline.
Learn more »
Give kudos to tab author, rate the tab!
1 2 3 4 5
comments
print report bad tab
1 comment total.
0 reply
maarten_vangest 198 Mar 09, 2015 08:09 AM

Verse is 1 missing, correct is:
G|--------------------------------|
D|----------------5---5-----------|
A|6-6--6--1---1-----------5-5-6---|
E|--------------------------------|

Chorus is also 1 missing, correct is:
G|--------------------------------|
D|--------------------------------|
A|--------6-----6-3---3-----------|
E|--4--4-4----------------3---4---|

guest
You may want to rate the tab now too:
select rating
Wanna post a correction for this tab? Suggest correction