Oops, an error
Loading. Please wait.

Back In Time tab

218 views 1 this week
1 commentread comment
1 2 3 4 5
1 last vote to show rating
add to favorites
×
Save as Personal and add changes to this tab that will be seen only by you. Learn more ›
×
You can save this tab as Personal to edit and correct it or add notes. All changes will be seen only by you. Learn more »
launch autoscroll
font size
0
reset
how to read this tab
guitar tuner
edit
Autoscroll
slow
fast
+/-
esc
set tempo
stop
Author
Tabbed By: BlenderBR




 * E/Eb ( x 6 9 8 0 0 )




Enjoy!




- Intro: 


Guitar 1: B Eb E G# F#          x4


Guitar 2 (when the drums come in):

e|------------------------------------------------------|
B|------------------------------------------------------|
G|-----------------8-8-11-13-13-13-6---8-8-11-13-13-13--|
D|-----------------x-x-x--x--x--x--x---x-x-x--x--x--x---|
A|-----------------6-6-9--11-11-11-4---6-6-9--11-11-11--|
E|------------------------------------------------------|



- Verse:

B                 F#
Why does my head hurt
               G#
How did i get here
                      Em
Was it the thirtheen shot or the twelve bear

B              F#
Why did i wake up
              G#
Without my cloths on
              Em
On someone's kitchen floor this is so wrong




- Pre Chorus:

(Play during "I Guess I must...") 
e|-------------------------------------------------------------------------------------------------------------|
B|-------------------------------------------------------------------------------------------------------------|
G|-4-4-4-4-4-4-4-4-4-4-4-4-6-6-8-8-4-4-4-4-4-4-4-4-4-4-4-4-6-6-8-8-4-4-4-4-4-4-4-4-4-4-4-4-6-6-8-8-------------|
D|-------------------------------------------------------------------------------------------------4-4-4-4-4-4-|
A|-------------------------------------------------------------------------------------------------4-4-4-4-4-4-|
E|-------------------------------------------------------------------------------------------------2-2-2-2-2-2-|


B                       Em
I guess i must have passed out
               C#
I never got a name
                       F#
I've got to have her number

Somewhere inside my brain




- Chorus:

            B   Eb  Em
If i could back in time
               Em   F#    G#
Then i would replay last night
               B    Eb  Em
She's got me losing my mind
                Em   F#  G#
Wish i could go back in time

Back in time

      E        Eb   B
If i could go back in 
      E        Eb   B
If i could go back in 
      E        Eb   B
If i could go back in 
 G#
Time




- Post-Chorus: B Eb E G# F#     x2



Guitar 2 (when the drums come in)::

e|-----------------------------------|
B|-----------------------------------|
G|------------------8-8-11-13-13-13--|
D|------------------x-x-x--x--x--x---|
A|------------------6-6-9--11-11-11--|
E|-----------------------------------|



- Verse 2:

(Play during "Maybe i'll...") 
e|--7---7---7---7---6---6---6---6---4---4---4---4--------4-------|
B|----7---7---7---7---7---7---7---7---7---7---7---7--5-5---5-4---|  x2
G|---------------------------------------------------------------|
D|---------------------------------------------------------------|
A|---------------------------------------------------------------|
E|---------------------------------------------------------------|


    B
Maybe i'll spend my 
    F#
Whole day on Tinder
            G#                Em
Looking to find that face i remember

     B
And then i'll text her
    F#
And she'll come over
      G#                         Em
I'm we'll undo last night on the sofa




- Pre Chorus:


(Play during "Did anybody...") 
e|-------------------------------------------------------------------------------------------------------------|
B|-------------------------------------------------------------------------------------------------------------|
G|-4-4-4-4-4-4-4-4-4-4-4-4-6-6-8-8-4-4-4-4-4-4-4-4-4-4-4-4-6-6-8-8-4-4-4-4-4-4-4-4-4-4-4-4-6-6-8-8-------------|
D|-------------------------------------------------------------------------------------------------4-4-4-4-4-4-|
A|-------------------------------------------------------------------------------------------------4-4-4-4-4-4-|
E|-------------------------------------------------------------------------------------------------2-2-2-2-2-2-|

B                Em
Did anybody see her
                    C#
Before she slipped away
                F#
Someone could stop me

Making a big mistake




- Chorus:

            B   Eb  Em
If i could back in time
               Em   F#    G#
Then i would replay last night
               B    Eb  Em
She's got me losing my mind
                Em   F#  G#
Wish i could go back in time

Back in time

      E        Eb   B
If i could go back in 
      E        Eb   B
If i could go back in 
      E        Eb   B
If i could go back in 
 G#
Time




- Bridge:

B        
If i could show up 
F#
From the future
         G#                 F#
I would try to make things right

Em
And i would tell me
B
To leave the party
    C#           F#
And take back to my



(Play after "to my...") 
e|-------------------------------------------|
B|-------------------------------------------|  
G|----------------8-9-11~---11~---13~---11~--|
D|---------8-9-11----------------------------|
A|----9-11-----------------------------------|
E|-12----------------------------------------|



B
And if i argue
F#
I'd punch myself out
       G#             F#
And i would take my place



(Play after "my place...") 
e|---------------------------------|
B|---------------------------------|  
G|--9-8-6----9-8-6----9-8-6-----9--|
D|--------9--------9--------9---9--|
A|------------------------------7--|
E|---------------------------------|


Em                   E/Eb
She'd be here right now
             C#             Em
Instead of somewhere else today




- Chorus:
            
If i could back in time
              Em   F#    G#
Then i would replay last night
                B   Eb  Em
She's got me losing my mind
                Em   F#  G#
Wish i could go back in time
            B   Eb  Em
If i could back in time
               Em   F#    G#
I know that i'd get it right
             B   Eb  Em
If i could just press rewind
                 Em   F#  G#
I know that you would be mine

Would be mine
      E        Eb   B
If i could go back in 
      E        Eb   B
If i could go back in 
      E        Eb   B
If i could go back in 
 G#
Time
      E        Eb   B
If i could go back in 
      E        Eb   B
If i could go back in 
      E        Eb   B
If i could go back in 
 G#
Time
      E        Eb   B
If i could go back in 
      E        Eb   B
If i could go back in 
      E        Eb   B
If i could go back in 
 G#
Time
      E        Eb   B
If i could go back in 
      E        Eb   B
If i could go back in 
      E        Eb   B
If i could go back in 
 G#
Time



- Ending: B Eb E G# F#    x2


__________
Tabbed by: BlenderBR

            
            
Suggest correction
Creating personal tab
Creating personal tab
You can edit any tab online and save it as your Personal.

You can edit, replace or remove any tab part or add personal notes – all changes will be seen only by you.

Personal tabs can be accessed anytime from any device, even offline.
Learn more »
Give kudos to tab author, rate the tab!
1 2 3 4 5
comments
print report bad tab
1 comment total.
+1 reply
stw101 10 Apr 12, 2017 07:38 AM

👍

guest
You may want to rate the tab now too:
select rating
Wanna post a correction for this tab? Suggest correction