Oops, an error
Loading. Please wait.

Mcbusted album tab

285 views 3 this week
1 commentread comment
1 2 3 4 5
2 more votes to show rating
add to favorites
×
Save as Personal and add changes to this tab that will be seen only by you. Learn more ›
×
You can save this tab as Personal to edit and correct it or add notes. All changes will be seen only by you. Learn more »
launch autoscroll
font size
0
reset
how to read this tab
guitar tuner
edit
Autoscroll
slow
fast
+/-
esc
set tempo
stop
Author
McBusted - McBusted (Deluxe Edition) - 2014




1.  Air Guitar
2.  Hate Your Guts (Ft. Mark Hoppus)
3.  What Happened to Your Band
4.  Get Over It
5.  Riding on My Bike
6.  Gone
7.  Sensitive Guy
8.  Beautiful Girls Are the Loneliest
9.  Before You Knew Me
10. Back in Time
11. How's My Hair
12. Getting It Out
13. 23 59
14. In Da Club
15. I See Red




All Songs Tabbed By BlenderBR




-----------------------------------------------------------------------------
                             1. Air Guitar
-----------------------------------------------------------------------------
Tabbed By: Fabio BlenderBR
 - Give your rating and help others users to find the best versions of the songs -

Bsus4: (x22400)
Cm7:   (x32400)

Intro: E        A G# A G#            (2x)

Intro/Pre Chorus/Chorus Riff:
e|-11--12--9--7------------|
B|-------------------------|
G|-------------------------|
D|-------------------------| Several Times
A|-------------------------|
E|-------------------------|


Verse:
E
I never was a cool kid

No one ever really gave a damn what I did
           A G# A G#    E
I liked to party but I never got invited
                                A G# A G#
Alone again so me, myself and I
E
Tried karaoke but they told me I was only okay
                    A G# A G#
I guess I never should sang Beyonce
E
or MJ, so I dropped the Mic


Pre Chorus:
     B            A                                 
Oh yeah all the people 
                              B
In the bar turned round and stared
             A                            B
I was on my knees and whipping round my hair
      A
and I knew that I was winning


Chorus:
          E                                   
Close my eyes and see the crowd
B         A                    B
but my fingers don't make any sound
    E             B   A       B   
my Air Guitar

Chorus Riff (0:50)
e|---------------------------|
B|--10h9-10h9-10h9---12b-----|
G|-----------------9---------|
D|---------------------------|
A|---------------------------|
E|---------------------------|

E
I keep it with me night and day
B           A                      C   B 
You won't believe the way that I can play
   C#    B     A    B      
my Air Guitar, Air Guitar
       E      Bb      E 
like this

Chorus Riff (1:02)
e|--12b-----6b------12b------|
B|---------------------------|
G|---------------------------|
D|---------------------------|
A|---------------------------|
E|---------------------------|


Verse:
E                                 A G# A G#   E
In my head I am a Rockstar and I probably date a Pop Star
                      
a Pop Star and a model on the side
A G# A G#    E
I know I'll never make it
                                
but tonight I'm good enough to fake it
        A G# A G#    E 
bend an imaginary string and break it,
                                A G# A G#
replace it in the backstage of my mind


Pre Chorus:
B              A                                
But I know my friends 
                             B
all think I'm living such a lie
         A                                  B
but the lie they think I'm living gets me high
          A
it's the gift that keeps on giving


Chorus:
          E                                   
Close my eyes and see the crowd
B         A                     B
but my fingers don't make any sound
    E             B   A       B   
my Air Guitar

Chorus Riff (1:47)
e|---------------------------|
B|--10h9-10h9-10h9---12b-----|
G|-----------------9---------|
D|---------------------------|
A|---------------------------|
E|---------------------------|

E
Jimmy Page and Brian May
B        A                     C  B
Won't believe the way that I can play
   C#    B     A    B      
my Air Guitar, Air Guitar
       E      Bb      E     A G# A G#     E     Bb      E      A G# A G#
like this

Chorus Riff (1:59)
e|--12b-----6b------12b-------------12b-----6b------12b--------------|
B|-----------------------10h9-10h9-----------------------10h9-10h9---|
G|-------------------------------------------------------------------|
D|-------------------------------------------------------------------|
A|-------------------------------------------------------------------|
E|-------------------------------------------------------------------|


Bridge:
Bsus4              Cm7
You think there's nothing there
Bsus4          Cm7
it's simply made of air

Bridge Riff (2:22)  (You laugh but you're just...)
e|------------------------------------------------------------------------|
B|------------------------------------------------------------------------|
G|-18-18-18-16-16-16-15-15-15-11-11-11--------------------------------9---|
D|-x--x--x--x--x--x--x--x--x--x--x--x-7-7-6-6---------7-7-6-6---------x---|
A|-16-16-16-14-14-14-13-13-13-9--9--9---------9-9-7-7---------9-9-7-7-7---|
E|------------------------------------------------------------------------|

C#               F#m
you laugh but you're just scared
A              
try it if you dare


Chorus:
E     B   A    
Air guitar, 

Chorus Riff (2:32)
e|---------------------------|
B|--10h9-10h9-10h9---12b-----|
G|-----------------9---------|
D|---------------------------|
A|---------------------------|
E|---------------------------|
E     B   A
Air guitar

Chorus Riff (2:37)
e|---------------------------|
B|--10h9-10h9-10h9---12b-----|
G|-----------------9---------|
D|---------------------------|
A|---------------------------|
E|---------------------------|
           E           
I take it with me everywhere
B            A                     C B  
yeah but you don't even know it's there
C#       B      A     Cm7
my Air Guitar, Air Guitar

E
Close my eyes and see the crowd
B        A                     B
but my fingers don't make any sound
E       B   A
my Air Guitar

Chorus Riff (2:57)
e|---------------------------|
B|--10h9-10h9-10h9---12b-----|
G|-----------------9---------|
D|---------------------------|
A|---------------------------|
E|---------------------------|
E
I keep it with me night and day
B           A                      C   B 
You won't believe the way that I can play
   C#    B     A    B      
my Air Guitar, Air Guitar
       E      Bb      E     A G# A G#     E     Bb      E      A G# A G#
like this

Final Riff (3:09)
e|--12b-----6b------12b-------------12b-----6b------12b--------------|
B|-----------------------10h9-10h9-----------------------10h9-10h9---|
G|-------------------------------------------------------------------|
D|-------------------------------------------------------------------|
A|-------------------------------------------------------------------|
E|-------------------------------------------------------------------|




-----------------------------------------------------------------------------
                             2. Hate Your Guts
-----------------------------------------------------------------------------
Tabbed By: Fabio BlenderBR
 - Give your rating and help others users to find the best versions of the songs -

 - Intro:
Guitar 1
e|----------------------------------------------------------------|
B|----------------------------------------------------------------|
G|-----7---7-------7---7--------7---7-------7---7-----------------|
D|-7-2-7-7-7---7-2-7-7-7----7-2-7-7-7---7-2-7-7-7-----------------|
A|-7-2-5-7-5---7-2-5-7-5----7-2-5-7-5---7-2-5-7-5-----------------|
E|-5-0---5-----5-0---5------5-0---5-----5-0---5-------------------|

Guitar 2
e|-12----14--12--10------------|
B|----14-----------------------|
G|-----------------------------|
D|-----------------------------|
A|-----------------------------|     4x
E|-----------------------------|


 - Verse:
(When i was seventeen...)
Guitar 1
e|---------------------------------------------------------------------|
B|---------------------------------------------------------------------|
G|--7-7-7-7----------7-7-7-7---------7-7-7-7----------9-9-9-9----------|
D|--7-7-7-7-7-7-7-7--7-7-7-7-7-7-7-7-7-7-7-7-7-7-7-7--9-9-9-9-7-7-7-7--|
A|--5-5-5-5-7-7-7-7--5-5-5-5-7-7-7-7-5-5-5-5-7-7-7-7--7-7-7-7-7-7-7-7--|
E|----------5-5-5-5----------5-5-5-5---------5-5-5-5----------5-5-5-5--|
PM          .......          ......          .......          .......


(Now i'm almost twenty nine...)
Guitar 1
e|---------------------------------------------------------------------|
B|---------------------------------------------------------------------|
G|--7-7-7-7----------7-7-7-7---------7-7-7-7----------9-9-9-9----------|
D|--7-7-7-7-7-7-7-7--7-7-7-7-7-7-7-7-7-7-7-7-7-7-7-7--9-9-9-9-7-7-7-7--|
A|--5-5-5-5-7-7-7-7--5-5-5-5-7-7-7-7-5-5-5-5-7-7-7-7--7-7-7-7-7-7-7-7--|
E|----------5-5-5-5----------5-5-5-5---------5-5-5-5----------5-5-5-5--|
PM          .......          ......                   


 - Chorus:
(Because i hate your guts...)
Guitar 1
e|------------------------------------------------------------|--------|
B|------------------------------------------------------------|--------|
G|-7-7-7-7-7-7-7-7-----------------9-9-9-9-7-7-7-7------------|--------|
D|-7-7-7-7-7-7-7-7-7-7-7-7-7-7-7-7-9-9-9-9-7-7-7-7-7-7-7-7----|-7-9-11-|
A|-5-5-5-5-5-5-5-5-7-7-7-7-7-7-7-7-7-7-7-7-5-5-5-5-7-7-7-7----|-7-9-11-|
E|-----------------5-5-5-5-5-5-5-5-----------------5-5-5-5----|-5-7-9--|

Guitar 2
e|--10----10----10---------------------12----12----10----9---|---------------|
B|-----10----10---10---10---10---10-------12----12---10------|--10-12-14-----|
G|------------------------9----9----9------------------------|---------------|
D|-----------------------------------------------------------|---------------|
A|-----------------------------------------------------------|---------------|
E|-----------------------------------------------------------|---------------|


(I hope your boss makes you stay...)
Guitar 1
e|----------------------------------------------------------|
B|----------------------------------------------------------|
G|-7-7-7-7-7-7-7-7-----------------9-9-9-9---7-7-9-9--------|
D|-7-7-7-7-7-7-7-7-7-7-7-7-4-4-4-4-9-9-9-9---7-7-9-9-7-7----|
A|-5-5-5-5-5-5-5-5-7-7-7-7-4-4-4-4-7-7-7-7---5-5-7-7-7-7----|
E|-----------------5-5-5-5-2-2-2-2-------------------5-5----|

Guitar 2
e|--10----10----10---------------------12----12----12-----------------|
B|-----10----10---10---10---10---10-------12----12---12--7b--9b---10b-|
G|------------------------9----9----9---------------------------------|
D|--------------------------------------------------------------------|
A|--------------------------------------------------------------------|
E|--------------------------------------------------------------------|



 - Intro:
Guitar 1
e|---------------------------------------|
B|---------------------------------------|
G|-----7---7-------7---7-----------------|
D|-7-2-7-7-7---7-2-7-7-7-----------------|
A|-7-2-5-7-5---7-2-5-7-5-----------------|
E|-5-0---5-----5-0---5-------------------|

Guitar 2
e|-12----14--12--10------------|
B|----14-----------------------|
G|-----------------------------|
D|-----------------------------|
A|-----------------------------|     2x
E|-----------------------------|



 - Verse 2:
(I hate the way you breathe...)
Guitar 1
e|---------------------------------------------------------------------|
B|---------------------------------------------------------------------|
G|--7-7-7-7----------7-7-7-7---------7-7-7-7----------9-9-9-9----------|
D|--7-7-7-7-7-7-7-7--7-7-7-7-7-7-7-7-7-7-7-7-7-7-7-7--9-9-9-9-7-7-7-7--|
A|--5-5-5-5-7-7-7-7--5-5-5-5-7-7-7-7-5-5-5-5-7-7-7-7--7-7-7-7-7-7-7-7--|
E|----------5-5-5-5----------5-5-5-5---------5-5-5-5----------5-5-5-5--|
PM          .......          ......          .......          .......


(The way you steal the sheets...)
Guitar 1
e|---------------------------------------------------------------------|
B|---------------------------------------------------------------------|
G|--7-7-7-7----------7-7-7-7---------7-7-7-7----------9-9-9-9----------|
D|--7-7-7-7-7-7-7-7--7-7-7-7-7-7-7-7-7-7-7-7-7-7-7-7--9-9-9-9-7-7-7-7--|
A|--5-5-5-5-7-7-7-7--5-5-5-5-7-7-7-7-5-5-5-5-7-7-7-7--7-7-7-7-7-7-7-7--|
E|----------5-5-5-5----------5-5-5-5---------5-5-5-5----------5-5-5-5--|
PM          .......          ......                   


 - Chorus:
(Because i hate your guts...)
Guitar 1
e|------------------------------------------------------------|--------|
B|------------------------------------------------------------|--------|
G|-7-7-7-7-7-7-7-7-----------------9-9-9-9-7-7-7-7------------|--------|
D|-7-7-7-7-7-7-7-7-7-7-7-7-7-7-7-7-9-9-9-9-7-7-7-7-7-7-7-7----|-7-9-11-|
A|-5-5-5-5-5-5-5-5-7-7-7-7-7-7-7-7-7-7-7-7-5-5-5-5-7-7-7-7----|-7-9-11-|
E|-----------------5-5-5-5-5-5-5-5-----------------5-5-5-5----|-5-7-9--|

Guitar 2
e|--10----10----10---------------------12----12----10----9---|---------------|
B|-----10----10---10---10---10---10-------12----12---10------|--10-12-14-----|
G|------------------------9----9----9------------------------|---------------|
D|-----------------------------------------------------------|---------------|
A|-----------------------------------------------------------|---------------|
E|-----------------------------------------------------------|---------------|


(I hope your favourite TV show...)
Guitar 1
e|----------------------------------------------------------|
B|----------------------------------------------------------|
G|-7-7-7-7-7-7-7-7-----------------9-9-9-9---7-7-9-9--------|
D|-7-7-7-7-7-7-7-7-7-7-7-7-4-4-4-4-9-9-9-9---7-7-9-9-7-7----|
A|-5-5-5-5-5-5-5-5-7-7-7-7-4-4-4-4-7-7-7-7---5-5-7-7-7-7----|
E|-----------------5-5-5-5-2-2-2-2-------------------5-5----|

Guitar 2
e|--10----10----10---------------------12----12----12-----------------|
B|-----10----10---10---10---10---10-------12----12---12--7b---9b--10b-|
G|------------------------9----9----9---------------------------------|
D|--------------------------------------------------------------------|
A|--------------------------------------------------------------------|
E|--------------------------------------------------------------------|


(Wish i didn't love you...)
Guitar 1
e|-----------------------------------------------------------------|
B|-----------------------------------------------------------------|
G|-7-7-7-7-7-7-7-7-----------------9-9-9-9--11-11-11-11------------|
D|-7-7-7-7-7-7-7-7-7-7-7-7-7-7-7-7-9-9-9-9--11-11-11-11------------|
A|-5-5-5-5-5-5-5-5-7-7-7-7-7-7-7-7-7-7-7-7--9--9--9--9-------------|
E|-----------------5-5-5-5-5-5-5-5---------------------------------|

Guitar 2
e|--10----10----10---------------------12----12----14----14--------------|
B|-----10----10---10---10---10---10-------12----12----14----14-----------|
G|------------------------9----9----9------------------------------------|
D|-----------------------------------------------------------------------|
A|--------------------------------------------------------------0--2--4--|
E|-----------------------------------------------------------------------|

(I hope when i'm on tour...)
Guitar 1
e|----------------------------------------------------------|
B|----------------------------------------------------------|
G|-7-7-7-7-7-7-7-7-----------------9-9-9-9---7-7-9-9--------|
D|-7-7-7-7-7-7-7-7-7-7-7-7-4-4-4-4-9-9-9-9---7-7-9-9-7-7----|
A|-5-5-5-5-5-5-5-5-7-7-7-7-4-4-4-4-7-7-7-7---5-5-7-7-7-7----|
E|-----------------5-5-5-5-2-2-2-2-------------------5-5----|

Guitar 2
e|--10----10----10---------------------12----12----12-----------------|
B|-----10----10---10---10---10---10-------12----12---12--7b---9b--10b-|
G|------------------------9----9----9---------------------------------|
D|--------------------------------------------------------------------|
A|--------------------------------------------------------------------|
E|--------------------------------------------------------------------|


 - Intro:
Guitar 1
e|---------------------------------------|
B|---------------------------------------|
G|-----7---7-------7---7-----------------|
D|-7-2-7-7-7---7-2-7-7-7-----------------|
A|-7-2-5-7-5---7-2-5-7-5-----------------|
E|-5-0---5-----5-0---5-------------------|

Guitar 2
e|-12----14--12--10------------|
B|----14-----------------------|
G|-----------------------------|
D|-----------------------------|
A|-----------------------------|     2x
E|-----------------------------|


 - Bridge:
Guitar 1
e|-----------------------------------------------------------------|
B|-----------------------------------------------------------------|
G|-7-7-7-7-7-7-7-7---------------------7-7-------------------------|
D|-7-7-7-7-7-7-7-7-7-7-7-7-7-7-7-7-2-2-7-7-7-7-7-7-----------------|
A|-5-5-5-5-5-5-5-5-7-7-7-7-7-7-7-7-2-2-5-5-7-7-7-7-----------------|
E|-----------------5-5-5-5-5-5-5-5-0-0-----5-5-5-5-----------------|

Guitar 2
e|-----------------------------------------------------------------|
B|-----------------------------------------------------------------|
G|-7---11-9-7-6--7-6-5-4--6-7-6-4-2--4-6-7-------------------------|
D|-x---x--x-x-x--x-x-x-x--x-x-x-x-x--x-x-x-------------------------|
A|-5---9--7-5-4--5-4-3-2--4-5-4-2-4--2-4-5-------------------------|
E|-----------------------------------------------------------------|


Guitar 1
e|---------------------------------------------------------------------|
B|---------------------------------------------------------------------|
G|-7-7-7-7-7-7-7-7---------------------------7-7-7-7-9-9-9-9-----------|
D|-7-7-7-7-7-7-7-7-7-7-7-7-7-7-7-7-2-2-2-2---7-7-7-7-9-9-9-9-7-7-7-7---|
A|-5-5-5-5-5-5-5-5-7-7-7-7-7-7-7-7-2-2-2-2---5-5-5-5-7-7-7-7-7-7-7-7---|
E|-----------------5-5-5-5-5-5-5-5-0-0-0-0-------------------5-5-5-5---|

Guitar 2
e|-----------------------------------------------------------------|
B|-----------------------------------------------------------------|
G|-7---11-9-7-6--7-6-5-4-4-4---7-7-7-7-9-9-9-9-14-14-14-14-14-14---|
D|-x---x--x-x-x--x-x-x-x-x-x---x-x-x-x-x-x-x-x-x--x--x--x--x--x----|
A|-5---9--7-5-4--5-4-3-2-2-2---5-5-5-5-7-7-7-7-12-12-12-12-12-12---|
E|-----------------------------------------------------------------|


(Wish i didn't love you...)
Guitar 1
e|-----------------------------------------------------------------|
B|-----------------------------------------------------------------|
G|-7-7-7-7-7-7-7-7-----------------9-9-9-9--11-11-11-11------------|
D|-7-7-7-7-7-7-7-7-7-7-7-7-7-7-7-7-9-9-9-9--11-11-11-11------------|
A|-5-5-5-5-5-5-5-5-7-7-7-7-7-7-7-7-7-7-7-7--9--9--9--9-------------|
E|-----------------5-5-5-5-5-5-5-5---------------------------------|

Guitar 2
e|--10----10----10---------------------12----12----14----14-----|
B|-----10----10---10---10---10---10-------12----12----14----14--|
G|------------------------9----9----9---------------------------|
D|--------------------------------------------------------------|
A|--------------------------------------------------------------|
E|--------------------------------------------------------------|



(So you must be mistaken...)
Guitar 1
e|--5~---5~---5~---5~---5~---5~---2~-----------------|
B|--5~---5~---5~---5~---5~---5~---2~-----------------|
G|--7~---5~---7~---5~---7~---5~---2~-----------------|
D|--7~---7~---7~---7~---7~---7~---4~-----------------|
A|--5~---7~---5~---7~---5~---7~---4~-----------------|
E|-------5~--------5~--------5~---2~-----------------|


 - Chorus
(Because i hate your guts...)
Guitar 1
e|-----------------------------------------------------------------|
B|-----------------------------------------------------------------|
G|---9-9-9-9--7-7-7--9-9-9-9---------------------------------------|
D|---9-9-9-9--7-7-7--9-9-9-9--7-7-7-7------------------------------|
A|---7-7-7-7--5-5-5--7-7-7-7--7-7-7-7------------------------------|
E|----------------------------5-5-5-5------------------------------|

 - Intro:
Guitar 1
e|-------------------------------------|------------|
B|-------------------------------------|------------|
G|-----7---7-------7---7--------7---7--|------------|
D|-7-2-7-7-7---7-2-7-7-7----7-2-7-7-7--|-7----------|
A|-7-2-5-7-5---7-2-5-7-5----7-2-5-7-5--|-7----------|
E|-5-0---5-----5-0---5------5-0---5----|-5----------|


Guitar 2
e|-12----14--12--10------------|          e|-10-10-10----------|
B|----14-----------------------|          B|----------10~------|
G|-----------------------------|          G|-------------------|
D|-----------------------------|          D|-------------------|
A|-----------------------------|   3x     A|-------------------|
E|-----------------------------|          E|-------------------|




-----------------------------------------------------------------------------
                         3. What Happened To Your Band
-----------------------------------------------------------------------------
Tabbed By: Fabio BlenderBR
 - Give your rating and help others users to find the best versions of the songs -

Intro: 
C#m A   E B     (4x)


Intro Riff:  (00:17)
e|---------------------------------------------------------------------------------|
B|---------------------------------------------------------------------------------|
G|-13-13-11-11-9-9----13-13-11-11-9-9-----13-13-11-11-9-9---14-14-13-13-11-11------|
D|-x--x--x--x--x-x----x--x--x--x--x-x-----x--x--x--x--x-x---x--x--x--x--x--x-------|
A|-11-11-9--9--7-7----11-11-9--9--7-7-----11-11-9--9--7-7---12-12-11-11-9--9-------|
E|---------------------------------------------------------------------------------|

(00:25)
e|---------------------------------------------------------------------------------|
B|---------------------------------------------------------------------------------|
G|-13-13-11-11-9-9----13-13-11-11-9-9-----13-13-11-11-9-9---9-9-8-8-8-9------------|
D|-x--x--x--x--x-x----x--x--x--x--x-x-----x--x--x--x--x-x---x-x-x-x-x-x------------|
A|-11-11-9--9--7-7----11-11-9--9--7-7-----11-11-9--9--7-7---7-7-6-6-6-7------------|
E|---------------------------------------------------------------------------------|


Post Intro:
C#m A   E B     (2x)

Post Intro Riff:    (00:32)
e|---------------------------------|
B|-----5-----5-----5-----4h5-------|
G|-4-4---4-4---4-4---4-4-----------|
D|---------------------------------|   Several Times
A|---------------------------------|
E|---------------------------------|


Verse:
C#m  A      E           B         C#m    A
Tonight, I feel like I just wanna let it go
     E            B           C#m        A
And hang with a crowd that I don't even know
E           B    C#m  A     E    B
So I don't lose my mind


Verse Riff:    (00:55)
e|-----4-----2-----4---------------|
B|-----------------------4h5-------|
G|-4-4---4-4---4-4---4-4-----------|
D|---------------------------------|
A|---------------------------------|   Several Times
E|---------------------------------|

C#m   A         E            B           C#m     A
Back home, the words that I hear are so predictable
      E             B           C#m     A
They fuck with my mind, make me miserable
      E     B    C#m   A
They gotta know first hand
      E       B
They wanna understand


Chorus:

                           Chorus Riff:  (1:11)
                         e|----------------------------------------------------------|
                         B|----------------------------------------------------------|
                         G|-13-13-11-11-9-9----13-13-11-11-8-8-----13-13-11-11-9-9---|
                         D|-x--x--x--x--x-x----x--x--x--x--x-x-----x--x--x--x--x-x---|
                         A|-11-11-9--9--7-7----11-11-9--9--6-6-----11-11-9--9--7-7---|
                         E|----------------------------------------------------------|

F#m                    A
What happened to your band?
E                      B
What are your future plans?
     F#m               A
I'm like your biggest fan
E           B             C#m           A
Where'd you go, I've been lost without you, it's crazy
E           B             C#m                 A
Time moves slow, I ain't seen you on the TV lately


Intro: C#m A   E B     (2x)

Intro Riff:     (1:33)
e|---------------------------------------------------------------------------------|
B|---------------------------------------------------------------------------------|
G|-13-13-11-11-9-9----13-13-11-11-9-9-----13-13-11-11-9-9---9-9-8-8-8-9------------|
D|-x--x--x--x--x-x----x--x--x--x--x-x-----x--x--x--x--x-x---x-x-x-x-x-x------------|
A|-11-11-9--9--7-7----11-11-9--9--7-7-----11-11-9--9--7-7---7-7-6-6-6-7------------|
E|---------------------------------------------------------------------------------|


Verse 2:

Verse Riff:    (01:40)
e|-----4-----2-----4---------------|
B|-----------------------4h5-------|
G|-4-4---4-4---4-4---4-4-----------|
D|---------------------------------|
A|---------------------------------|   Several Times
E|---------------------------------|

C#m  A   E             B                  C#m     A
I walk through the neighbourhood where I used to live
     E         B              C#m      A
And the only thing that people ask me is
       E          B          C#m     A
What happened to your band?
       E          B
What happened to your band?


Chorus:

                           Chorus Riff
                         e|----------------------------------------------------------|
                         B|----------------------------------------------------------|
                         G|-13-13-11-11-9-9----13-13-11-11-8-8-----13-13-11-11-9-9---|
                         D|-x--x--x--x--x-x----x--x--x--x--x-x-----x--x--x--x--x-x---|
                         A|-11-11-9--9--7-7----11-11-9--9--6-6-----11-11-9--9--7-7---|
                         E|----------------------------------------------------------|

F#m                    A
What happened to your band?
E                      B
What are your future plans?
     F#m               A
I'm like your biggest fan
E           B             C#m           A
Where'd you go, I've been lost without you, it's crazy
E           B             C#m                 A
Time moves slow, I ain't seen you on the TV lately

Chorus Riff:      (02:03)
e|--------------------------------------------------------------------------|
B|-5---5---5---5-----7---7---7---7----5---5---5---5-----4---4---4---4-------|
G|---4---4---4---4-----4---4---4---4----4---4---4---4-----4---4---4---4-----|
D|--------------------------------------------------------------------------|
A|--------------------------------------------------------------------------|
E|--------------------------------------------------------------------------|



Bridge:
E   B   A       (4x)

Bridge Riff:   (02:18)
e|------------------------------------------------|
B|------------------------------------------------|
G|-9--11--13----9--11--13----9--11--13----9-------|
D|-x--x---x-----x--x---x-----x--x---x-----x-------|
A|-7--9---11----7--9---11----7--9---11----7-5h4b--|
E|------------------------------------------------|

(02:26)
e|------------------------------------------------------------------|
B|--------------------------------------------9h10-9h10-9h10-9h10---|
G|-9--11--13----9--11--13----9--11--13----13~-----------------------|
D|-x--x---x-----x--x---x-----x--x---x-----x-------------------------|
A|-7--9---11----7--9---11----7--9---11----11~-----------------------|
E|------------------------------------------------------------------|



Chorus:
E           B             C#m           A
Where'd you go, I've been lost without you, it's crazy
E           B             C#m                 A
Time moves slow, I ain't seen you on the TV lately

Chorus Riff:      (02:50)
e|--------------------------------------------------------------------------|
B|-5---5---5---5-----7---7---7---7----5---5---5---5-----4---4---4---4-------|
G|---4---4---4---4-----4---4---4---4----4---4---4---4-----4---4---4---4-----|
D|--------------------------------------------------------------------------|
A|--------------------------------------------------------------------------|   Several times
E|--------------------------------------------------------------------------|

E           B             C#m           A
Where'd you go, I've been lost without you, it's crazy
E           B             C#m                 A
Time moves slow, I ain't seen you on the TV lately

E           B             C#m           A
Where'd you go, I've been lost without you, it's crazy
E           B             C#m                 A
Time moves slow, I ain't seen you on the TV lately
E           B             C#m           A
Where'd you go, I've been lost without you, it's crazy
E           B             C#m                 A
Time moves slow, I ain't seen you on the TV lately

E           B             C#m           A
Where'd you go, I've been lost without you, it's crazy
E           B             C#m                 A
Time moves slow, I ain't seen you on the TV lately
E           B             C#m           A
Where'd you go, I've been lost without you, it's crazy
E           B             C#m                 A
Time moves slow, I ain't seen you on the TV lately




-----------------------------------------------------------------------------
                            4. Get Over It
-----------------------------------------------------------------------------
Tabbed By: Fabio BlenderBR

 - Give your rating and help others users to find the best versions of the songs -


Intro:
e|---------------------------------------|
B|---------------------------------------|
G|---------------------------------------|
D|-7-7---------7-7-----------------------|
A|-----7-5-5-7-----7-5-5-7---------------|   4x
E|---------------------------------------|


Verse:
G 
Everybody says that i'm a mess
                                    D  
Because your left i should be moving on 
G
Can't get out of bed and get dress
                                        D   
Crazy obsess still can't believe your gone

Verse Riff:
e|---------------------------------------|
B|---------------------------------------|
G|---------------------------------------|
D|-7-7---------7-7-----------------------|
A|-----7-5-5-7-----7-5-5-7---------------|   4x
E|---------------------------------------|


Pre Chorus:
             Bm
You left me high and dry
 A
Wasted in time
       G
Gotta pick myself up 

And stay out all night singing

Pre Chorus Riff:
e|----4h5----55--55------55--55------55--55---------------------|
B|--------5-----------------------------------------------------|
G|-------------------22-----------------------------------------|
D|-------------------------------55-----------------------------|
A|--------------------------------------------------------------|
E|--------------------------------------------------------------|


Chorus:
D
Get up get up get up get over it
D/F#
Get up get up get up get over it
G
Get up and get over it Get up and get over it
D
Get up get up get up get over it
D/F#
Get up get up get up get over it
G
Get up and get over it Get up and get over it
        Bm   A    G   D/F#   G
Put me down down down down down

Get up and get over it


Intro:
D  D/F#   G   Bm   A

Intro Riff:
e|-5---------------------|
B|---7-5---5-7-----------|
G|-------7-----7---------|
D|-----------------------|
A|-----------------------|    3x
E|-----------------------|

e|-5---------------------|
B|---7-5-----------------|
G|-------7-4---7---------|
D|-----------7-----------|
A|-----------------------|    1x
E|-----------------------|


Verse:
G
Everybody says that you're do
                                    D 
And just finding that's so hard to take
G 
So i guess that it's my fault that you left
                                                        D  
Cause you're telling my friends that i was just a big mistake

Verse Riff:
e|---------------------------------------|
B|---------------------------------------|
G|---------------------------------------|
D|-7-7---------7-7-----------------------|
A|-----7-5-5-7-----7-5-5-7---------------|   4x
E|---------------------------------------|



Pre Chorus:
             Bm
You left me high and dry
 A
Wasted in time
       G
Gotta pick myself up 

And stay out all night singing

Pre Chorus Riff:
e|----4h5----55--55------55--55------55--55---------------------|
B|--------5-----------------------------------------------------|
G|-------------------22-----------------------------------------|
D|-------------------------------33-----------------------------|
A|--------------------------------------------------------------|
E|--------------------------------------------------------------|


Chorus:
D
Get up get up get up get over it
D/F#
Get up get up get up get over it
G
Get up and get over it Get up and get over it
D
Get up get up get up get over it
D/F#
Get up get up get up get over it
G
Get up and get over it Get up and get over it
        Bm   A    G   D/F#  G
Put me down down down down down

Get up and get over it


Intro:
D  D/F#  G   Bm   A

Intro Riff:
e|-5---------------------|
B|---7-5---5-7-----------|
G|-------7-----7---------|
D|-----------------------|
A|-----------------------|    3x
E|-----------------------|

e|-5---------------------|
B|---7-5-----------------|
G|-------7-4---7---------|
D|-----------7-----------|
A|-----------------------|    1x
E|-----------------------|


Bridge:
Bm                             A
I know that we can't never go back
                                   G
You told me that you never wanted that

I get that, it's clear that 

You better on your own

Bm                            A
It's been so long since we broke up
                   G
It's about time i woke up

We broke up, We broke up

I guess i gotta let you go

Bridge Riff:
e|---------------------------------------------------------------|
B|---------------------------------------------------------------|
G|-----6-7-----6-7-----6-7-----6-7-----6-7-----6-7-----6-7----6--|
D|-9-9-----9-9-----7-7-----7-7-----5-5-----5-5-----5-5------5----|
A|---------------------------------------------------------------|  
E|---------------------------------------------------------------|

e|---------------------------------------------------------------|
B|---------------------------------------------------------------|
G|-----6-7-----6-7-----6-7-----6-7-----6-7-----6-7-----6-7-------|
D|-9-9-----9-9-----7-7-----7-7-----5-5-----5-5-----5-5------5----|
A|---------------------------------------------------------------|  
E|---------------------------------------------------------------|


Post Bridge Riff:
e|-5---------------------|
B|---7-5-----------------|
G|-------7-4---7---------|
D|-----------7-----------|
A|-----------------------|   
E|-----------------------|



Chorus Riff:
e|-12p10-12p10-12p10-12p10-12p10-12p10-12p10-12p10-----|
B|-----------------------------------------------------|
G|-----------------------------------------------------|
D|-----------------------------------------------------|
A|-----------------------------------------------------|    Until the end of the song
E|-----------------------------------------------------|

D
Get up get up get up get over it
D/F#
Get up get up get up get over it
G
Get up and get over it Get up and get over it
D
Get up get up get up get over it
D/F#
Get up get up get up get over it
G
Get up and get over it Get up and get over it
D
Get up get up get up get over it
D/F#
Get up get up get up get over it
G
Get up and get over it Get up and get over it
D
Get up get up get up get over it
D/F#
Get up get up get up get over it
G
Get up and get over it Get up and get over it
       Bm    A    G    D/F#  G
I was down down down down down

But i'm up and i'm over it




-----------------------------------------------------------------------------
                            5. Riding On My Bike
-----------------------------------------------------------------------------
Tabbed By: Fabio BlenderBR


* F#m11: (x 9 11 11 9 9)
 * G/F#:  (2 5 4 x x x)


Verse:
       Bm     A    D
I was riding on my bike
       Bm     Em     D
When i saw a girl i like
       Bm       A     D
On the way back home to mine
       Bm        Em     D
I was sure that she was fine

        D                  D E F#m11          F#m11 E D            D E F#m11
I was nervous couldn't stop reaching in my pocket trying to pick my phone
           D                 D E F#m11                   E             F#m11 E
Then she answers sweetly and agreed to meet me couldn't wait for us to be alone

       Bm           A    D
When i knew that we had plans
       Bm        Em    D
I was riding with no hands
             Bm   A      D
All the way back home to mine
   Bm        Em     D
Laughing in the sunshine

          D                 D E F#m11                   F#m11 E D            D E F#m11
Her sexy ripped up stocking had me bonny hoppin and she would soon be knocking at my door
        D                D E F#m11                   E                   F#m11 E
It was all so intense but didn't make sense what on earth was in me that she saw


Chorus:
            D
I grip the handle bars
        G      G/F#     Em
As i overtake all the vans and cars
         Bm       A          G
I know i definitely can't be late
   D               Bm       A
I gotta make an important date

     D
And on the street
      G          G/F#          Em
The people they stop and they stare at me
       Bm              A               G
Cause they just don't get that i can't be late
         D                Bm       A
Cause I gotta make an important date


And i was riding on my bike
Riding on my bike


Verse 2:
       Bm      A    D
I was punching on a show
       Bm        Em   D
Going super fast like wow
        Bm    A    D
Flying just like superman
          Bm     Em      D
Hoping my chain wouldn't jam

            D           D E F#m11               F#m11 E D            D E F#m11
I was so excited that i couldn't hide it couldn't wait to ride it later on
           D                 D E F#m11                     E                        F#m11 E
It would take some patience, she would wear a fragance, i would ask her where she get it from


Chorus:
            D
I grip the handle bars
        G      G/F#     Em
As i overtake all the vans and cars
         Bm       A          G
I know i definitely can't be late
   D               Bm       A
I gotta make an important date

     D
And on the street
      G          G/F#          Em
The people they stop and they stare at me
       Bm              A               G
Cause they just don't get that i can't be late
         D                Bm       A
Cause I gotta make an important date


Bridge:
           Bm     D    Bm
And i was riding on my bike
      D        Bm    D
Just riding on my bike
  Bm      D     Bm
Riding on my bike
  D      Bm    C#m
Riding on my bike


Chorus:
            D
I grip the handle bars
        G      G/F#     Em
As i overtake all the vans and cars
         Bm       A          G
I know i definitely can't be late
   D               Bm       A
I gotta make an important date

     D
And on the street
      G          G/F#          Em
The people they stop and they stare at me
       Bm              A               G
Cause they just don't get that i can't be late
         D                Bm       A
Cause I gotta make an important date


Final:
       Bm        A   D
As i strained up my tie
         Bm      Em    D
She was walking up my drive
         Bm        A   D
Hottest girl i've ever seen
       Bm       Em       D
Then i woke up from my dream





-----------------------------------------------------------------------------
                             6. Gone
-----------------------------------------------------------------------------
Tabbed By: Fabio BlenderBR

 - Give your rating and help others users to find the best versions of the songs -

Intro
F

Intro Riff:
e|-----------------------------------------------|
B|--8b------------------8b-----------------------|
G|-----------------------------------------------|
D|-----------------------------------------------|
A|-----------------------------------------------|
E|-----------------------------------------------|


Verse:
F
Always the same
    Dm
Too much the pain
    Bb
You are to blame
       C
And i know i got to get myself

F
Back in the game
 Dm
Forget your name
   Bb
I need a change
              C
Cause you're such a hazard to my health

Verse Riff:
e|-----------------------------------------------|
B|--8b------------------8b-----------------------|
G|-----------------------------------------------|
D|-----------------------------------------------|
A|-----------------------------------------------|
E|-----------------------------------------------|


Pre Chorus:
Bb                                  C
The moment that you think there's nothing wrong
Bb                                  C
We're moving on you know you must belong

Gone


Chorus:
F                             Dm
I'm done thinking about you forever
   Bb            C
I never, No i'm thru, being used
        F                       Dm
So i'm not going back then not ever
   Bb             C                 
I never, not for you, not for you long

F
Gone
Dm
Long
Bb        C
Gone

Chorus Riff:
e|----------------------------------------------------------|
B|-666666666--66-55-----------------------------------------|
G|------------------77-55--333-222-000-----5555-7777-99-10~-|
D|-------------------------------------333------------------|
A|----------------------------------------------------------|  3x
E|----------------------------------------------------------|


Intro:
F


Verse 2:
F
Now i can breath
  Dm
Watching you leave
     Bb
You can't believe
      C
That this is what i want it

             F
It came so easily
         Dm
Setting you free
          Bb
It's all right with me
        C
If you go out there and flaunt it

Verse riff:
e|-----------------------------------------------|
B|--8b------------------8b-----------------------|
G|-----------------------------------------------|
D|-----------------------------------------------|
A|-----------------------------------------------|
E|-----------------------------------------------|


Pre Chorus:
Bb                                  C
The moment that you think there's nothing wrong
Bb                                  C
We're moving on you know you must belong

Gone


Chorus:
F                             Dm
I'm done thinking about you forever
   Bb            C
I never, No i'm thru, being used
        F                       Dm
So i'm not going back then not ever
   Bb             C                 
I never, not for you, not for you long

Chorus Riff:
e|----------------------------------------------------------|
B|-666666666--66-55-----------------------------------------|
G|------------------77-55--333-222-000-----5555-7777-99-10~-|
D|-------------------------------------333------------------|
A|----------------------------------------------------------|  2x
E|----------------------------------------------------------|


F
Gone
Dm
Long
Bb        C
Gone

Chorus Riff:
e|-----333------333------333-----333-----333-----333-----333---------------|
B|-------------------------------------------------------------------------|
G|-------------------555-----555-----333-----333-----555-----55-77-99-10---|
D|-333------333------------------------------------------------------------|
A|-------------------------------------------------------------------------|    2x
E|-------------------------------------------------------------------------|



Bridge:
Bb              C
I was doing us both a favor
            F              Em            Bb
Let's say goodbye but not see you later on
             C
Cause now i know (Gone Gone Gone)


Intro:
F


Pre Chorus:
Bb                                  C
The moment that you think there's nothing wrong
Bb                                  c
We're moving on you know you must belong

Gone


Chorus:
F                             Dm
I'm done thinking about you forever
   Bb            C
I never, No i'm thru, being used
        F                       Dm
So i'm not going back then not ever
   Bb             C                 
I never, not for you, not for you long


Chorus Riff:
e|----------------------------------------------------------|
B|-666666666--66-55-----------------------------------------|
G|------------------77-55--333-222-000-----5555-7777-99-10~-|
D|-------------------------------------333------------------|
A|----------------------------------------------------------|  2x
E|----------------------------------------------------------|

F
Gone
Dm
Long
Bb        C
Gone

F
Gone
Dm
Long
Bb        C
Gone


Chorus Riff:
e|-----333------333------333-----333-----333-----333-----333---------------|
B|-------------------------------------------------------------------------|
G|-------------------555-----555-----333-----333-----555-----55-77-99-10---|
D|-333------333------------------------------------------------------------|
A|-------------------------------------------------------------------------|    2x
E|-------------------------------------------------------------------------|




-----------------------------------------------------------------------------
                             7. Sensitive Guy
-----------------------------------------------------------------------------
Tabbed By: Fabio BlenderBR

 - Give your rating and help others users to find the best versions of the songs -


Intro:
F C Dm Bb  (2x)
 
Intro Riff:
e|--------------------------------------------------------------|
B|--------------------------------------------------------------|
G|----10/5\10----9/5\9-----10/5\10-14\15/12/10------------------|
D|----x-/x\x-----x/x\x-----x-/x\x--x-\x-/x-/x-------------------|
A|----8-/3\8-----7/3\7-----8-/3\8--12\13/10/8-------------------|
E|--------------------------------------------------------------|

Post Intro:
Bb F C Dm   (2x)


Verse:
Bb      F          C           Dm
It was over in an blink of an eye
Bb      F        C       Dm
So i apologized
Bb              F            C          Dm
She said don't worry it was your first time
Bb          F           C
It was my second time


Chorus:
            F
I'm just a sensitive guy
      C
I'll cry on your shoulder
 Dm                     Bb
We watch a movie and i cry when it's over
F               C                       Dm
I cry and cry and cry and cry and cry and cry and cry
Bb
Cause i'm a sensitive guy

Chorus Riff:
e|--55-33-88-33-55-33-88-33--------------------------------------|
B|---------------------------10-10-99-77-------------------------|
G|---------------------------------------10-10-88-77-------------|
D|---------------------------------------------------10-10-88----|
A|---------------------------------------------------------------|   2x
E|---------------------------------------------------------------|


Intro:
F C Dm Bb  (2x)

Intro Riff:
e|--------------------------------------------------------------|
B|--------------------------------------------------------------|
G|----10/5\10----9/5\9-----10/5\10-14\15/12/10------------------|
D|----x-/x\x-----x/x\x-----x-/x\x--x-\x-/x-/x-------------------|
A|----8-/3\8-----7/3\7-----8-/3\8--12\13/10/8-------------------|
E|--------------------------------------------------------------|


Verse 2:
Bb            F           C       Dm
We went for dinner in a stake restaurant
Bb       F         C        Dm
I'm vegetarian
Bb          F          C          Dm
Her friends were laughing at the leopard print on
Bb            F                   C
The bag i'm carrying it's not a purse 


Chorus:
     F
I'm just a sensitive guy
    C
I cry after dinner
  Dm                        Bb
I'm on a diet but i'm not getting thinner
F               C                       Dm
I cry and cry and cry and cry and cry and cry and cry
Bb
Cause i'm a sensitive guy

Chorus Riff:
e|--55-33-88-33-55-33-88-33--------------------------------------|
B|---------------------------10-10-99-77-------------------------|
G|---------------------------------------10-10-88-77-------------|
D|---------------------------------------------------10-10-88----|
A|---------------------------------------------------------------|   2x
E|---------------------------------------------------------------|

Bridge:
Dm              Am       
When you make love to me
Bb                   Am        
I’m hearing soft violins

Bridge Riff;
e|--------------------|
B|--------------------|
G|--------------------|
D|--------------------|
A|-0-4-7-5------------|
E|--------------------|

Dm                   Am
Close my eyes in Les Miserables 
Eb                C
Jean Valjean dies in the end

Bridge Riff:
e|-----------------8-8-8-8b--12-12-12-12b--------|
B|---------8~-8h11-------------------------------|
G|-8~-8h10---------------------------------------|
D|-----------------------------------------------|
A|-----------------------------------------------|
E|-----------------------------------------------|


Chorus:
I'm just a sensitive guy
               Dm
I'm ready to marry
                                 Bb
She’s so Samantha but I’m all after Carrie
F               C                       Dm
I cry and cry and cry and cry and cry and cry and cry
Bb
I'm just a super super

F
Sensitive guy
    C
I sleep with the light on
Dm                        Bb
Got a badass eco-friendly motor scooter to ride on
F               C                       Dm
I cry and cry and cry and cry and cry and cry and cry
Bb
I'm a sensitive guy

Chorus Riff:
e|--55-33-88-33-55-33-88-33--------------------------------------|
B|---------------------------10-10-99-77-------------------------|
G|---------------------------------------10-10-88-77-------------|
D|---------------------------------------------------10-10-88----|
A|---------------------------------------------------------------|    2x
E|---------------------------------------------------------------|

F
You know you
C
Complete me
Dm
Please say me
Bb
You'll never leave me

F
You know you
C
Complete me
Dm
Please tell me
Bb
You're never leaving

Final Riff:
e|-----------------------------------------------|
B|-----------------------------------------------|
G|-8~--8h10--------------------------------------|
D|----------8~--8h15--12~----------88------------|
A|------------------------------------88---------|
E|-----------------------------------------------|

Bb 
I'm just a sensitive guy




-----------------------------------------------------------------------------
                     8. Beautiful Girls Are The Loneliest
-----------------------------------------------------------------------------
Tabbed By: BlenderBR

 - Give your rating and help others users to find the best versions of the songs -


 ** Capo 2nd



 * Asus2 : x 0 2 2 0 0
   Am :    x 0 2 2 1 0
   Fmaj7 : x 3 3 2 1 0
   Gsus4 : 3 2 0 0 1 0
   


Intro : C, Am, Asus2, Am, Fmaj7, C
        Gsus4, Am, Fmaj7, C


C                            Am     Asus2   Am
You think she's out of your league
         Fmaj7            C
And it plays on your mind
Gsus4                             Am   Asus2  Am
Look around, Look around, look around
Fmaj7               C
She's one of a kind




C                 Am    Asus2  Am
If she's all by herself
Fmaj7                  C
And she's looking at you
           Gsus4          Am   Asus2   Am
You gotta build up the courage
          Fmaj7     C
And do what you gotta do




        C          Am   Asus2  Am
But you see a reflection
          Fmaj7        C
And you fill up with doubt
         Gsus4            Am  Asus2  Am
And the words don't come easy
         Fmaj7          C
To the girl who stands out
         Gsus4            Am   Asus2  Am
No, the words don't come easy
        Fmaj7          C
To the girl who stands out



 C         Am           Fmaj7   C
You know, I think it's obvious
Gsus4     Am            Fmaj7   C
Beautiful girls are the loneliests
 C        Am                      Fmaj7   C
So next time you see one that you can't resist
Gsus4     Am                  Fmaj7    C
Remember, beautiful girls are the loneliest
Gsus4      Am       Fmaj7    C
Beautiful girls are the loneliest


       C             Am   Asus2  Am
So you move a step forward
        Fmaj7          C
But you take two steps back
Gsus4                          Am   Asus2  Am
freaking out, freaking out, freaking out
Fmaj7                C
and it goes on like that



          C         Am   Asus2  Am
scared to make a connection
           Fmaj7          C
Afraid of break down the walls
            Gsus4   Am   Asus2  Am
It couldn't be any harder
       Fmaj7          C
Should be no sweat at all




 C         Am           Fmaj7   C
You know, I think it's obvious
Gsus4     Am            Fmaj7   C
Beautiful girls are the loneliests
 C        Am                      Fmaj7   C
So next time you see one that you can't resist
Gsus4     Am                  Fmaj7    C
Remember, beautiful girls are the loneliest
Gsus4      Am       Fmaj7    C
Beautiful girls are the loneliest




Bridge : C, Am, Asus2, Am, Fmaj7, C
         Gsus4, Am, Fmaj7, C
         C, Am, Asus2, Am, Fmaj7, C
         Gsus4, Am, Fmaj7, C



 C         Am           Fmaj7   C
You know, I think it's obvious
Gsus4     Am            Fmaj7   C
Beautiful girls are the loneliests
 C        Am                      Fmaj7   C
So next time you see one that you can't resist
Gsus4     Am                  Fmaj7    C
Remember, beautiful girls are the loneliest
Gsus4      Am       Fmaj7    C
Beautiful girls are the loneliest




-----------------------------------------------------------------------------
                           9. Before You Knew Me
-----------------------------------------------------------------------------
Tabbed By: Fabio BlenderBR

- Give your rating and help others users to find the best versions of the songs -


 * Ab/C  ( x 3 6 5 0 0 )


Verse:
E            A
Take a seat
E                          
There's something i should tell you
                       
I don't wanna scare you
     C#m           G#m
It's hard for me 
     C#m
You deserve my honesty

                 E             A
I'm trying to be responsible


Verse Riff:
e|-----------------------------------------------|
B|-----------------------------------------------|
G|-9-9-9-9-9-9-9-9-9-9-9-9-9-9-9-9-9-9-9-9-9-9---|
D|-----------------------------------------------|
A|-----------------------------------------------|   2x
E|-----------------------------------------------|

E
You need to undestand

It's not the way I planned this
     C#m          G#m
It's not at all
    C#m
Are you sitting confortable


Pre Chorus:
B                           C#m  
This is gonna be difficult
A
It's not easy to say
B                                    A
I would watch you to take the wrong way

Pre Chorus Riff:
e|-----------------------------------------------|
B|-----------------------------------------------|
G|--4---6-------9-6-4----6-----------------------|
D|--x---x-7---7-x-x-x----x-7---------------------|
A|--2---4-x---x-7-4-2----4-x---------------------|
E|--------5---5------------5---------------------|


Chorus:
   B                           E
I liked you better before you knew me
     G#m
You were the girl next door 
                              C#m
But you're not anymore it's freaky
            A                                              E       
You were Hannah Montana but now you're licking things like Miley
            G#m                         C#m
You were cinematic now i'll make you a TV movie
      B        F#m                          A      C
It's to be, so amuse me, because you were better before you knew me


Chorus Riff:
e|------------------------------------------------------------------------|
B|------------------------------------------------------------------------|
G|------------------------------------------------------------------------|
D|---2-1h2---2-1h2----2-1h2---2-1h2---2-1h2---2-1h2---2-1h2---------------|
A|----------------------------------4-------4-------0--------0--3b--------|
E|-0-------0--------4-------4---------------------------------------------|

e|------------------------------------------------------------------------|
B|------------------------------------------------------------------------|
G|------------------------------------------------------------------------|
D|---2-1h2---2-1h2----2-1h2---2-1h2---2-1h2---2-1h2---2-1h2---------------|
A|----------------------------------4-------2----------------0--3b--------|
E|-0-------0--------4-------4-----------------------2---------------------|


Intro:
E E E A    (2x)

Intro Riff:
e|--------------------------------|
B|--------------------------------|
G|--------------------------------|
D|--2b-2b-------------------------|
A|--------------------------------|   2x
E|---------0-5-0-4-5-4-0----------|


Verse:
                E               A
I'm totally the one to blame
E         
I am know for ages i'm must be contagious
C#m            G#m C#m
We're the same, and i'm the one that made you lame

E                     A
Everytime i look at you 

Verse Riff:
e|-----------------------------------------------|
B|-----------------------------------------------|
G|-9-9-9-9-9-9-9-9-9-9-9-9-9-9-9-9-9-9-9-9-9-9---|
D|-----------------------------------------------|
A|-----------------------------------------------|   2x
E|-----------------------------------------------|

E 
I see my reflection covering perfection
C#m                      G#m
It's such a bumout view
C#m            
See what you turned into


Pre Chorus:
B                             C#m
This is gonna to be difficult
A
But it has to be said
B                             A
Everyone seen your go back instead

Pre Chorus Riff:
e|-----------------------------------------------|
B|-----------------------------------------------|
G|--4---6-------9-6-4----6-----------------------|
D|--x---x-7---7-x-x-x----x-7---------------------|
A|--2---4-x---x-7-4-2----4-x---------------------|
E|--------5---5------------5---------------------|



Chorus:
                               E
I liked you better before you knew me
         G#m
You were High Definition
                    C#m
Now you're barelly 720
            A                                           E
You were Health Fanatic, now you're a Ben and Jerrys Junkie
                       G#m                          C#m
You were all about positions, now you're stuck in missionary
      B        F#m                          A      C
But Mary, so amuse me, because you were better before you knew me


Chorus Riff:
e|------------------------------------------------------------------------|
B|------------------------------------------------------------------------|
G|------------------------------------------------------------------------|
D|---2-1h2---2-1h2----2-1h2---2-1h2---2-1h2---2-1h2---2-1h2---------------|
A|----------------------------------4-------4-------0--------0--3b--------|
E|-0-------0--------4-------4---------------------------------------------|

e|------------------------------------------------------------------------|
B|------------------------------------------------------------------------|
G|------------------------------------------------------------------------|
D|---2-1h2---2-1h2----2-1h2---2-1h2---2-1h2---2-1h2---2-1h2---------------|
A|----------------------------------4-------2----------------0--3b--------|
E|-0-------0--------4-------4-----------------------2---------------------|


Bridge:
C#m
It's not too late for you
G#m
Move on to someone new
A                              E      B
Stop doing thing that i would do

C#m 
It turns out that my ignorance

Bridge Riff:
e|-----------------------------------------------|
B|-----------------------------------------------|
G|-----------------------------------------------|
D|--------2-1h2-------2-1h2-------2-1h2----------|
A|--4~----------3~----------2~----------0--------|
E|-----------------------------------------------|

Ab/C
Sucks out and influence
B                                 A 
So run baby, while you got the chance


Chorus:
                           E
You were better before you knew me
          G#m                                C#m
You were ask club 7 now you look like a Slipknot groupie
          A                                        E
We're Bradjolina now were looking more like Speidi (Like Speidi)
            G#m                                             C#m          B           F#m
You were a peacecore hippie now you're playing Call of Duty nightly and hungry, for noobies
             A        C      
I liked you better before you knew me

Chorus Riff:
e|------------------------------------------------------------------------|
B|------------------------------------------------------------------------|
G|------------------------------------------------------------------------|
D|---2-1h2---2-1h2----2-1h2---2-1h2---2-1h2---2-1h2---2-1h2---------------|
A|----------------------------------4-------2----------------0--3b--------|
E|-0-------0--------4-------4-----------------------2---------------------|


     E
You were the girl next door 
      G#m                     C#m
But you're not anymore it's freaky
                   A
You were High Definition
                    E
Now you're barelly 720
                               G#m
You were the "oops I diddy"
                          C#m
Now you're like a shame filled Britney
   B          F#m                    A      C
So leave me, i'm sorry, i liked you better before you knew me


Chorus Riff:
e|------------------------------------------------------------------------|
B|------------------------------------------------------------------------|
G|------------------------------------------------------------------------|
D|---2-1h2---2-1h2----2-1h2---2-1h2---2-1h2---2-1h2---2-1h2---------------|
A|----------------------------------4-------4-------0--------0--3b--------|
E|-0-------0--------4-------4---------------------------------------------|

e|------------------------------------------------------------------------|
B|------------------------------------------------------------------------|
G|------------------------------------------------------------------------|
D|---2-1h2---2-1h2----2-1h2---2-1h2---2-1h2---2-1h2---2-1h2---------------|
A|----------------------------------4-------2----------------0--3b--------|
E|-0-------0--------4-------4-----------------------2---------------------|


Final:
E E E A   (4x)
E

Intro Riff:
e|--------------------------------|
B|--------------------------------|
G|--------------------------------|
D|--2b-2b-------------------------|
A|--------------------------------|   3x
E|---------0-5-0-4-5-4-0----------|

e|--------------------------------|
B|--------------------------------|
G|--------------------------------|
D|--2b-2b-------------------------|
A|--------------------------------|   1x
E|---------0-5-0-4-5-4------------|




Tabbed By: BlenderBR




 * E/Eb ( x 6 9 8 0 0 )




Enjoy!




- Intro: 


Guitar 1: B Eb E G# F#          x4


Guitar 2 (when the drums come in):

e|------------------------------------------------------|
B|------------------------------------------------------|
G|-----------------8-8-11-13-13-13-6---8-8-11-13-13-13--|
D|-----------------x-x-x--x--x--x--x---x-x-x--x--x--x---|
A|-----------------6-6-9--11-11-11-4---6-6-9--11-11-11--|
E|------------------------------------------------------|



- Verse:

B                 F#
Why does my head hurt
               G#
How did i get here
                      Em
Was it the thirtheen shot or the twelve bear

B              F#
Why did i wake up
              G#
Without my cloths on
              Em
On someone's kitchen floor this is so wrong




- Pre Chorus:

(Play during "I Guess I must...") 
e|-------------------------------------------------------------------------------------------------------------|
B|-------------------------------------------------------------------------------------------------------------|
G|-4-4-4-4-4-4-4-4-4-4-4-4-6-6-8-8-4-4-4-4-4-4-4-4-4-4-4-4-6-6-8-8-4-4-4-4-4-4-4-4-4-4-4-4-6-6-8-8-------------|
D|-------------------------------------------------------------------------------------------------4-4-4-4-4-4-|
A|-------------------------------------------------------------------------------------------------4-4-4-4-4-4-|
E|-------------------------------------------------------------------------------------------------2-2-2-2-2-2-|


B                       Em
I guess i must have passed out
               C#
I never got a name
                       F#
I've got to have her number

Somewhere inside my brain




- Chorus:

            B   Eb  Em
If i could back in time
               Em   F#    G#
Then i would replay last night
               B    Eb  Em
She's got me losing my mind
                Em   F#  G#
Wish i could go back in time

Back in time

      E        Eb   B
If i could go back in 
      E        Eb   B
If i could go back in 
      E        Eb   B
If i could go back in 
 G#
Time




- Post-Chorus: B Eb E G# F#     x2



Guitar 2 (when the drums come in)::

e|-----------------------------------|
B|-----------------------------------|
G|------------------8-8-11-13-13-13--|
D|------------------x-x-x--x--x--x---|
A|------------------6-6-9--11-11-11--|
E|-----------------------------------|



- Verse 2:

(Play during "Maybe i'll...") 
e|--7---7---7---7---6---6---6---6---4---4---4---4--------4-------|
B|----7---7---7---7---7---7---7---7---7---7---7---7--5-5---5-4---|  x2
G|---------------------------------------------------------------|
D|---------------------------------------------------------------|
A|---------------------------------------------------------------|
E|---------------------------------------------------------------|


    B
Maybe i'll spend my 
    F#
Whole day on Tinder
            G#                Em
Looking to find that face i remember

     B
And then i'll text her
    F#
And she'll come over
      G#                         Em
I'm we'll undo last night on the sofa




- Pre Chorus:


(Play during "Did anybody...") 
e|-------------------------------------------------------------------------------------------------------------|
B|-------------------------------------------------------------------------------------------------------------|
G|-4-4-4-4-4-4-4-4-4-4-4-4-6-6-8-8-4-4-4-4-4-4-4-4-4-4-4-4-6-6-8-8-4-4-4-4-4-4-4-4-4-4-4-4-6-6-8-8-------------|
D|-------------------------------------------------------------------------------------------------4-4-4-4-4-4-|
A|-------------------------------------------------------------------------------------------------4-4-4-4-4-4-|
E|-------------------------------------------------------------------------------------------------2-2-2-2-2-2-|

B                Em
Did anybody see her
                    C#
Before she slipped away
                F#
Someone could stop me

Making a big mistake




- Chorus:

            B   Eb  Em
If i could back in time
               Em   F#    G#
Then i would replay last night
               B    Eb  Em
She's got me losing my mind
                Em   F#  G#
Wish i could go back in time

Back in time

      E        Eb   B
If i could go back in 
      E        Eb   B
If i could go back in 
      E        Eb   B
If i could go back in 
 G#
Time




- Bridge:

B        
If i could show up 
F#
From the future
         G#                 F#
I would try to make things right

Em
And i would tell me
B
To leave the party
    C#           F#
And take back to my



(Play after "to my...") 
e|-------------------------------------------|
B|-------------------------------------------|  
G|----------------8-9-11~---11~---13~---11~--|
D|---------8-9-11----------------------------|
A|----9-11-----------------------------------|
E|-12----------------------------------------|



B
And if i argue
F#
I'd punch myself out
       G#             F#
And i would take my place



(Play after "my place...") 
e|---------------------------------|
B|---------------------------------|  
G|--9-8-6----9-8-6----9-8-6-----9--|
D|--------9--------9--------9---9--|
A|------------------------------7--|
E|---------------------------------|


Em                   E/Eb
She'd be here right now
             C#             Em
Instead of somewhere else today




- Chorus:
            
If i could back in time
              Em   F#    G#
Then i would replay last night
                B   Eb  Em
She's got me losing my mind
                Em   F#  G#
Wish i could go back in time
            B   Eb  Em
If i could back in time
               Em   F#    G#
I know that i'd get it right
             B   Eb  Em
If i could just press rewind
                 Em   F#  G#
I know that you would be mine

Would be mine
      E        Eb   B
If i could go back in 
      E        Eb   B
If i could go back in 
      E        Eb   B
If i could go back in 
 G#
Time
      E        Eb   B
If i could go back in 
      E        Eb   B
If i could go back in 
      E        Eb   B
If i could go back in 
 G#
Time
      E        Eb   B
If i could go back in 
      E        Eb   B
If i could go back in 
      E        Eb   B
If i could go back in 
 G#
Time
      E        Eb   B
If i could go back in 
      E        Eb   B
If i could go back in 
      E        Eb   B
If i could go back in 
 G#
Time



- Ending: B Eb E G# F#    x2


__________
Tabbed by: BlenderBR





-----------------------------------------------------------------------------
                          11. How's My Hair
-----------------------------------------------------------------------------
Tabbed By: Jim BlenderBR


* D/F#      ( 2 0 0 0 3 3 )


Intro : Em


Em           C
Dude, don't lie to me
D                       G D/F# Em
Tell me straight, don't lie to me
Em                    C              D
I haven't seen for a while, am I in denial, 
        G D/F# Em
Or am I having a meltdown ?


C                   D
I just don't know anymore
                  B
When did I give a damn, this is not who I am


C           D
  How's my hair ?
           G            Em
No, it's not like me to even care, but
C         D
 Do you swear 
              B                           Em F# G   D
That looks alright ?, cause tonight she's gonna be there
C          D
 How's my hair ?

She makes me care



Intro : Em



Em            C
Dude, don't frighten me
D                  G D/F# Em
If looks bad, just lie to me
Em                             C
We're like walking through the door now
           D                G D/F# Em
I'm so insecure now, and unusually nervous


C                           D
Cause I just don't know anymore
           B
When did I give a damn, this is not who I am


C           D
  How's my hair ?
           G                  Em
No, it's not like me to even care, but
C         D
 Do you swear 
              B                           Em F# G   D
That looks alright ?, cause tonight she's gonna be there
C          D
 How's my hair ?

She makes me care



Em
I comb it to the left
A
I comb it the right
  B                     Em   F#    G    D
I try and stick it up, but it just don't feel right



Instrumental : C D G D/F# E D   
               C D B  Break - Em B B  B B B  B B C - 



C           D
  How's my hair ?
           G                 Em
No, it's not like me to even care, but
C         D
 Do you swear 
              B                           Em F# G   D
That looks alright ?, cause tonight she's gonna be there
C          D
 How's my hair ?
                      C
She makes me care



Em  F#  G     D  C
Tell me How's my hair 
Em  F#  G     D  C 
Tell me How's my hair 
Em  F#  G     D  C
Tell me How's my hair 
     Em  F# G    D   C
She's gonna be there
Em  F#  G     D  C
Tell me How's my hair 




-----------------------------------------------------------------------------
                             12. Getting It Out
-----------------------------------------------------------------------------
Tabbed By: Fabio BlenderBR

 - Give your rating and help others users to find the best versions of the songs -


Verse:
B
Now I'm standing right outside your door
Just like fifteen thousand times before
But tonight i gotta tell you
Better late than never 
I can't take it anymore


Chorus:
     C#        Eb   E              A           G  
I'm getting it out now (You're the one that i want)
     C#        Eb   E               A          G
I'm getting it out now (You're the one for so long)
  C#      Eb  E           A        G
Check it out now (Not a moment to waste)
      C#       Eb   E       A               G
I'm getting it out now (I could fall on my face)

Chorus Riff:
e|-------------------------------|
B|-------------------------------|
G|-6-8-9-------------------------|
D|-x-x-x-------------------------|
A|-4-6-7--------4----------------|   4x
E|-------2-3-5----5-3------------|



Verse 2:
B
So i climb upon your brother's car
Hook the radio to my guitar
And i turn to eleven
Even god in heaven
Can hear the beating of my heart


Chorus:
     C#        Eb   E              A           G  
I'm getting it out now (You're the one that i want)
     C#        Eb   E               A          G
I'm getting it out now (You're the one for so long)
  C#      Eb  E           A        G
Check it out now (Not a moment to waste)
      C#       Eb   E       A               G
I'm getting it out now (I could fall on my face)

Chorus Riff:
e|-------------------------------|
B|-------------------------------|
G|-6-8-9-------------------------|
D|-x-x-x-------------------------|
A|-4-6-7--------4----------------|   4x
E|-------2-3-5----5-3------------|


Outro:
A         C#m
What if i sing to you
F#m           D
Sha-la-la oh-oh-oh
A         C#m
What it bring me to you
F#m          D
Sha-la-la oh-oh-oh

D
Whose to say

Outro Riff:
e|------------------------------------|
B|------------------------------------|
G|------7-9-10-12-14-16-18------------|
D|------x-x-x--x--x--x--x-------------|
A|-2h4--5-7-8--10-12-14-16------------|
E|------------------------------------|

              A
You could be miles away
B
Now i'm standing in the pouring rain
And the neighboors started to complain
But i don't care what they are saying
Gonna keep on playing, Til i finally get my way


Solo: C# Eb E   A G    (4x)

Solo:
e|----------------------------------------------------------|
B|-12b-12h15p12b--------------------------------------------|
G|---------------12h14p12h14p12-10p9b---0/12b---------------|
D|---------------------------------------------5h7p5h7p5----|
A|-------------------------------------------------------7~-|
E|----------------------------------------------------------|

e|-----------------12----------12----------12---------12----------12b---|
B|-------------10b----12h10p12----12h10p12----12h10p12---12h10p12-------|
G|----------9b----------------------------------------------------------|
D|-5b-7b-9b-------------------------------------------------------------|
A|----------------------------------------------------------------------|
E|----------------------------------------------------------------------|

Outro:
A         C#m
What if i sing to you
F#m           D
Sha-la-la oh-oh-oh
A         C#m
What it bring me to you
F#m          D
Sha-la-la oh-oh-oh

D
Whose to say

Outro Riff:
e|------------------------------------|
B|------------------------------------|
G|------7-9-10-12-14-16-18------------|
D|------x-x-x--x--x--x--x-------------|
A|-2h4--5-7-8--10-12-14-16------------|
E|------------------------------------|
              A
You could be miles away
B
So i climb upon your brother's car
Hook the radio to my guitar
And i turn to eleven
Even god in heaven
Can hear the beating of my heart

Chorus:
     C#        Eb   E              A           G  
I'm getting it out now (You're the one that i want)
     C#        Eb   E               A          G
I'm getting it out now (You're the one for so long)
  C#      Eb  E           A        G
Check it out now (Not a moment to waste)
      C#       Eb   E       A    B C# Eb E   Em
I'm getting it out now 

Chorus Riff:
e|-------------------------------|
B|-------------------------------|
G|-6-8-9-------------------------|
D|-x-x-x-------------------------|
A|-4-6-7--------4----------------|   3x
E|-------2-3-5----5-3------------|

e|-----------------------------7~--|
B|-----------------------------7~--|
G|-6-8-9-----------------------9~--|
D|-x-x-x-----------------------9~--|
A|-4-6-7-----000-222-444-5h6h7-7~--|   1x
E|-------333-----------------------|




-----------------------------------------------------------------------------
                             13. 23:59
-----------------------------------------------------------------------------
 Tabbed By: Fabio BlenderBR

 - Give your rating and help others users to find the best versions of the songs -


Intro:
I'm thinking about you
                             E
It's the worst minute of my day

I'm thinking about you
                             A
It's the worst minute of my day
E
I'm thinking about you
C#m              A
It's the worst minute of my day
E
I'm thinking about you
C#m            A
I'm thinking about you


Intro Riff:
(Play during "I'm Thinking about you...") 
e|---------------------------------------------------------|
B|---------------------------------------------------------|
G|---------------------------------------------------------|
D|---6---6h7p6-----2---6p4---4---6----6h7p6-----2---6-4----|
A|-7---7-------4-4---4-----7---7----7-------4-4---4-----7--|   
E|---------------------------------------------------------|


Verse:
E              C#m       A
You work in a run down drive-thru
E                C#m           A
I'm always the first in your queue
E                      C#m        A
I don't like the food But i like you
A   G# A    G# A     G# A  B
I do i do i do i like you

E                     C#m    A
You sing in a bar on fifty street
E                             C#m  A
I watch every night from the same seat
E                       C#m        A
I don't like the songs cause they go
A      G# A    G# A     G# A  B
On and on and on the songs about


Pre Chorus:
E                      B
Every place that you lived
                    C#m
Every guy that you kissed
               A      G# A    G# A     G# A  B
Do you know i exist?


(Play during "Every Place That you Lived...") 
e|-------------------------------------------------------------------------------------------------------|
B|-7-7-7h10-7-7-7h10-7-7-7h10-7-7-7h10-4-4-4h5-4-4-4h5-4-4-4h5-4-4-4h5-5-5-7h5-5-5-7h5-5-5-5h7-5-5-5h5---|
G|-9-9-9-9--9-9-9-9--9-9-9-9--9-9-9-9--4-4-4-4-4-4-4-4-4-4-4-4-4-4-4-4-6-6-6-6-6-6-6-6-6-6-6-6-6-6-6-6---|
D|-------------------------------------------------------------------------------------------------------|
A|-------------------------------------------------------------------------------------------------------|
E|-------------------------------------------------------------------------------------------------------|


Chorus:
          E
I should give it up up up up up
            B
But i can't get enough ugh ugh ugh ugh 
        C#m
I don't try to fight it

(Play during "Try to fight it") 
e|-------------------------------------|
B|-17-17-17-16-16-16-------------------|
G|-------------------18-18-18-16-16~---|
D|-------------------------------------|
A|-------------------------------------|
E|-------------------------------------|

        A                   C
Cause secretly i like it

(Play during "Secretly I like it") 
e|-------------------------------------|
B|-17-17-17-16-16-16-------------------|
G|-------------------18-18-18-16-16~---|
D|-------------------------------------|
A|-------------------------------------|
E|-------------------------------------|

           E
Can't get out of my bed bed bed bed
            B
Or get you out of my head head head head
        C#m
I don't try to fight it

(Play during "Try to fight it") 
e|-------------------------------------|
B|-17-17-17-16-16-16-------------------|
G|-------------------18-18-18-16-16~---|
D|-------------------------------------|
A|-------------------------------------|
E|-------------------------------------|

        A                   C
Cause secretly i like it

(Play during "Secretly I like it") 
e|-------------------------------------|
B|-17-17-17-16-16-16-------------------|
G|-------------------18-18-18-16-16~---|
D|-------------------------------------|
A|-------------------------------------|
E|-------------------------------------|



Intro:
E
I'm thinking about you
C#m              A
It's the worst minute of my day
E
I'm thinking about you
C#m            A
I'm thinking about you

Intro Riff:
(Play during "I'm Thinking about you...") 
e|---------------------------------------------------------|
B|---------------------------------------------------------|
G|---------------------------------------------------------|
D|---6---6h7p6-----2---6p4---4---6----6h7p6-----2---6-4----|
A|-7---7-------4-4---4-----7---7----7-------4-4---4-----7--|   
E|---------------------------------------------------------|


Verse 2:
E                       C#m  A
Woke up from a dream i just had
E                       C#m     A
Can't forget, the dream was so rad
E                    C#m      A
Even when i sleep i think of you
A      G# A    G# A     G# A  B
I do i think of you about


Pre Chorus:
E     
23:59 
B                C#m
Everyday of my life
                  A      G# A    G# A     G# A  B
Do you know i'm alive

(Play during "23:59...") 
e|-------------------------------------------------------------------------------------------------------|
B|-7-7-7h10-7-7-7h10-7-7-7h10-7-7-7h10-4-4-4h5-4-4-4h5-4-4-4h5-4-4-4h5-5-5-7h5-5-5-7h5-5-5-5h7-5-5-5h5---|
G|-9-9-9-9--9-9-9-9--9-9-9-9--9-9-9-9--4-4-4-4-4-4-4-4-4-4-4-4-4-4-4-4-6-6-6-6-6-6-6-6-6-6-6-6-6-6-6-6---|
D|-------------------------------------------------------------------------------------------------------|
A|-------------------------------------------------------------------------------------------------------|
E|-------------------------------------------------------------------------------------------------------|



Chorus:
          E
I should give it up up up up up
            B
But i can't get enough ugh ugh ugh ugh 
        C#m
I don't try to fight it

(Play during "Try to fight it") 
e|-------------------------------------|
B|-17-17-17-16-16-16-------------------|
G|-------------------18-18-18-16-16~---|
D|-------------------------------------|
A|-------------------------------------|
E|-------------------------------------|
        A                   C
Cause secretly i like it

(Play during "Secretly I like it") 
e|-------------------------------------|
B|-17-17-17-16-16-16-------------------|
G|-------------------18-18-18-16-16~---|
D|-------------------------------------|
A|-------------------------------------|
E|-------------------------------------|

           E
Can't get out of my bed bed bed bed
            B
Or get you out of my head head head head
        C#m
I don't try to fight it

(Play during "Try to fight it") 
e|-------------------------------------|
B|-17-17-17-16-16-16-------------------|
G|-------------------18-18-18-16-16~---|
D|-------------------------------------|
A|-------------------------------------|
E|-------------------------------------|

        A                   C
Cause secretly i like it

(Play during "Secretly I like it") 
e|-------------------------------------|
B|-17-17-17-16-16-16-------------------|
G|-------------------18-18-18-16-16~---|
D|-------------------------------------|
A|-------------------------------------|
E|-------------------------------------|


Bridge:
E               B
Secretly i like it
E               A
Secretly i like it
E               B
Secretly i like it
E               A
Secretly i like it


Pre Chorus:
E     B
23:59 
  E              C#m
Everyday of my life
E       B        E
Do you know i'm alive


Chorus:

I should give it up up up up up
            B
But i can't get enough ugh ugh ugh ugh 
        C#m
I don't try to fight it

(Play during "Try to fight it") 
e|-------------------------------------|
B|-17-17-17-16-16-16-------------------|
G|-------------------18-18-18-16-16~---|
D|-------------------------------------|
A|-------------------------------------|
E|-------------------------------------|

        A                   C
Cause secretly i like it

(Play during "Secretly I like it") 
e|-------------------------------------|
B|-17-17-17-16-16-16-------------------|
G|-------------------18-18-18-16-16~---|
D|-------------------------------------|
A|-------------------------------------|
E|-------------------------------------|

           E
Can't get out of my bed bed bed bed
            B
Or get you out of my head head head head
        C#m
I don't try to fight it

(Play during "Try to fight it") 
e|-------------------------------------|
B|-17-17-17-16-16-16-------------------|
G|-------------------18-18-18-16-16~---|
D|-------------------------------------|
A|-------------------------------------|
E|-------------------------------------|

        A                   C
Cause secretly i like it

(Play during "Secretly I like it") 
e|-------------------------------------|
B|-17-17-17-16-16-16-------------------|
G|-------------------18-18-18-16-16~---|
D|-------------------------------------|
A|-------------------------------------|
E|-------------------------------------|

Intro:
E
I'm thinking about you
C#m              A
It's the worst minute of my day
E
I'm thinking about you
C#m            A
It's the worst mine of my day
E
I'm thinking about you
C#m              A
It's the worst minute of my day
E
I'm thinking about you
C#m            A
I'm thinking about you



Intro Riff:
(Play during "I'm Thinking about you...") 
e|---------------------------------------------------------|
B|---------------------------------------------------------|
G|---------------------------------------------------------|
D|---6---6h7p6-----2---6p4---4---6----6h7p6-----2---6-4----|
A|-7---7-------4-4---4-----7---7----7-------4-4---4-----7--|   2x
E|---------------------------------------------------------|




-----------------------------------------------------------------------------
                            14. In Da Club
-----------------------------------------------------------------------------
Tabbed By: Fabio BlenderBR



E
  why am i
E 
  why am i
E
  why am i
   B             A
standing in the club


E
  why am i
E 
  why am i
E
  why am i
   B             A
standing in the club


E
standing in the club
standing in the club
spending all my cash
                                 A
trying to chat these bitches up

E
standing in the club
standing in the club
but the dj sucks
                           A
so why am i in this club

Em
the room is so hot
     C#m
the girls are so not
    A                B
and i cant find my friends
Em
its the hot spot
    C#m
tonight but so what
    A                    Em
i still cant find my friends
Em
i think im about
   C#m
to puke and pass out
   A                    C#m   B   F#m
i wish this night would end


E
  why am i
E 
  why am i
E
  why am i
   B             A
standing in the club


E
  why am i
E 
  why am i
E
  why am i
   B             A
standing in the club

E
im standing in the club
im standing in the club
and the black eyed peas 
                        A
and P diddy say what up

E
im standing in the club
im standing in the club
and im on my knees 
                            A
in the bathroom throwing up


Em
my girl is at home
   C#m
im here on my own 
    A                B
im not looking for romance
Em
but i'm down on the floor
      C#m
she's (?)
    A                Em
trying to get in my pants
Em 
my bitch(?) is not blind 
    C#m
she may change her mind
     A                   C#m   B  F#m
the moment she see's me dance


E
  why am i
E 
  why am i
E
  why am i
   B             A
standing in the club


E
  why am i
E 
  why am i
E
  why am i
   B             A
standing in the club


B  C#m
DJ play something good
A  E
DJ i wish that you would
B  C#m
DJ play something good
A  E
DJ i wish that you would

B  C#m
DJ play something good
A  E
DJ i wish that you would
B  C#m
DJ play something good
A
DJ DJ


E E E B A 
E E E A


E
  why am i
E 
  why am i
E
  why am i
   B             A
standing in the club


E
  why am i
E 
  why am i
E
  why am i
   B             A
standing in the club





-----------------------------------------------------------------------------
                            15. I See Red
-----------------------------------------------------------------------------
Tabbed By: Fabio BlenderBR

- Give your rating and help others users to find the best versions of the songs -


Verse riff:
e|-----0-------0-------0-------0-------0-------0-------0-------0-----------|
B|---0---0---0---0---0---0---0---0---0---0---0---0---0---0---0---0---------|
G|-9-------9-------4-------6-------2-------2-------6-------4---------------|
D|-------------------------------------------------------------------------|
A|-------------------------------------------------------------------------|   2x
E|-------------------------------------------------------------------------|

E            B   C#m
I look like an idiot
           A
It's so obvious
        C#m      B
What he wants from you
E                 B     C#m
You say it's just innocent
           A
But you're hot as hell
      C#m      B
And he follows you



Pre Chorus Riff:
e|-----------------------------------------------|
B|-----------------------------------------------|
G|-9-9-9-9-9-9-10-10-12-12-8-8-8-8---------------|
D|-x-x-x-x-x-x-x--x--x--x--x-x-x-x---------------|  3x
A|-7-7-7-7-7-7-8--8--10-10-6-6-6-6---------------|
E|-----------------------------------------------|

e|------------------------------------|
B|------------------------------------|
G|-9-9-9-9-9-9--6--6--4---------------|
D|-x-x-x-x-x-x--6--6--4---------------|
A|-7-7-7-7-7-7--4--4--2---------------|  1x
E|------------------------------------|

       A
Said I can't do this
      C#m     B
And I can't do that
         A
But he's texting you
        C#m    B
And you're texting back
          A
It's been going on
         C#m   B
And I've got no say
      A
Coz I can't do shit
       C#m     B         
At the end of the day



          E
And I see red
                B
It's tearing me apart

(Play during "I wish he was dead")
e|----------------------|
B|----------------------|
G|----------------------|
D|----1-2----1-2--------|
A|--2------4------------|
E|----------------------|

      C#m           A             
And I wish he was dead
           C#    B
I'm losing you
          E
Coz I see red

(Play at "Back of my head")
e|----------------------|
B|----------------------|
G|----------------------|
D|----1-2----1-2--------|
A|--2------4------------|
E|----------------------|

                      B           C#m           A
You're making me grow eyes in the back of my head
           C#   B
Because of you 
      E    B   C#m
I see red
       A   C#m   B
I see red


Piano:
e|--5-4-2-2--4-4-5-5-5-5-4-4-2-2-------|
B|-------------------------------------|
G|-------------------------------------|
D|-------------------------------------|
A|-------------------------------------|
E|-------------------------------------|

Guitar Riff:
(Play before "I See Red..."
e|----------------------|
B|----------------------|
G|----------------------|
D|----1-2----1-2--------|
A|--2------4------------| 
E|----------------------|




Verse riff:
e|-----0-------0-------0-------0-------0-------0-------0-------0-----------|
B|---0---0---0---0---0---0---0---0---0---0---0---0---0---0---0---0---------|
G|-9-------9-------4-------6-------2-------2-------6-------4---------------|
D|-------------------------------------------------------------------------|
A|-------------------------------------------------------------------------|   2x
E|-------------------------------------------------------------------------|

E                  B      C#m
You think I should get a grip
             A
It's hard to get a grip
                C#m     B
When you rub my nose in it
E                B        C#m
You say it's the same for you too
           A
It happens more with me
        C#m      B
Than it does with you



Pre Chorus Riff:
e|-----------------------------------------------|
B|-----------------------------------------------|
G|-9-9-9-9-9-9-10-10-12-12-8-8-8-8---------------|
D|-x-x-x-x-x-x-x--x--x--x--x-x-x-x---------------|  3x
A|-7-7-7-7-7-7-8--8--10-10-6-6-6-6---------------|
E|-----------------------------------------------|

e|------------------------------------|
B|------------------------------------|
G|-9-9-9-9-9-9--6--6--4---------------|
D|-x-x-x-x-x-x--6--6--4---------------|
A|-7-7-7-7-7-7--4--4--2---------------|  1x
E|------------------------------------|

           A
But that's such a lie
         C#m       B
And it's not the same
        A              C#m        B
Coz I'm in a band so I play the game
       A
But it don't mean shit
           C#m       B
Coz I'm in love with you
     A
So I feel the pain
       C#m        B
And it builds up too



       E
And I see red
                B
It's tearing me apart

(Play during "I wish he was dead")
e|----------------------|
B|----------------------|
G|----------------------|
D|----1-2----1-2--------|
A|--2------4------------|
E|----------------------|

      C#m           A             
And I wish he was dead
           C#    B
I'm losing you
          E
Coz I see red

(Play at "Back of my head")
e|----------------------|
B|----------------------|
G|----------------------|
D|----1-2----1-2--------|
A|--2------4------------|
E|----------------------|

                      B           C#m           A
You're making me grow eyes in the back of my head
           C#   B
Because of you 



          A
Well it's over now
           C#m    B
And you're moving out
        A                    C#m         B
Coz you hate the way that we scream and shout
            A                   C#m         B
And there's still a chance you did nothing wrong
       A                       C#m      B
So I'm calming down but you're moving on



      E
And I see red
                B
It's tearing me apart

(Play during "I wish he was dead")
e|----------------------|
B|----------------------|
G|----------------------|
D|----1-2----1-2--------|
A|--2------4------------|
E|----------------------|

      C#m           A             
And I wish he was dead
           C#    B
I'm losing you
          E
Coz I see red

(Play during "Don't make me grow eyes in the back of my head")
e|-----------------------|
B|----10---9---7---7---9-|
G|--9----9---9---9---9---|
D|-----------------------|
A|-----------------------|
E|-----------------------|

                      B           C#m           A
You're making me grow eyes in the back of my head
           C#   B
Because of you 
      E    B   C#m
I see red 

(Play during "I See Red...")
e|----------------------|
B|----------------------|
G|----------------------|
D|----1-2----1-2--------|
A|--2------4------------|
E|----------------------|

       A   C#   B     A  G#
I see red

            
            
Suggest correction
Creating personal tab
Creating personal tab
You can edit any tab online and save it as your Personal.

You can edit, replace or remove any tab part or add personal notes – all changes will be seen only by you.

Personal tabs can be accessed anytime from any device, even offline.
Learn more »
Give kudos to tab author, rate the tab!
1 2 3 4 5
comments
print report bad tab
1 comment total.
0 reply
godspeedy 10,502 Jul 21, 2015 06:30 AM

You should change the type to "Chords" I think

guest
You may want to rate the tab now too:
select rating
Wanna post a correction for this tab? Suggest correction