Oops, an error
Loading. Please wait.

Bottles And Cans tab

version 2
version 2

Whole song

  • The other version of this is incorrect.
244 views 1 this week
no commentswrite comment
1 2 3 4 5
2 more votes to show rating
add to favorites
×
Save as Personal and add changes to this tab that will be seen only by you. Learn more ›
×
You can save this tab as Personal to edit and correct it or add notes. All changes will be seen only by you. Learn more »
launch autoscroll
font size
0
reset
how to read this tab
guitar tuner
edit
Autoscroll
slow
fast
+/-
esc
set tempo
stop
Author
Difficulty
About this tab version
The other version of this is incorrect. Was this info helpful? Yes No
Let me start off by apologising for the redundancy of this tab. I couldn't figure out a good way to tab it
out. This version is off of their third EP, I Hate This Body, not the Moms+Dads version. Listen to the song 
for the strumming pattern. 

Tab should be 100% correct, if I missed anything or there are errors, email me at crazydrummerkid95@gmail.com


[Intro]

e|----------------------|
B|----------------------|
G|----------------------|  x2
D|---7---7---7----------|
A|---5---5---x---5------|
E|-------7---5---3------|


[Verse 1]

"And we were drinking..."

e|----------------------|
B|----------------------|
G|----------------------|   x3
D|---7---7---7----------|
A|---5---5---x---5------|
E|-------7---5---3------|


[Verse 2]

"But you were always so afraid..."

e|----------------------|
B|----------------------|
G|----------------------|   x2
D|-------7--------------|
A|---9---5---7---5------|
E|---7-------5---3------|


[Chorus]

"I crashed my car into your house..."

e|----------------------|
B|----------------------|
G|----------------------|   x4
D|-------7--------------| 
A|---9---5---7---5------|
E|---7-------5---3------|


[Verse 3]

"And I've been listening to songs..."

e|----------------------|
B|----------------------|
G|----------------------|   x4
D|-------7--------------|
A|---9---5---7---5------|
E|---7-------5---3------|


[Chorus]

"I crashed my car into your house..."

e|----------------------|
B|----------------------|
G|----------------------|   x3
D|-------7--------------|
A|---9---5---7---5------|
E|---7-------5---3------|


[Bridge]

"...and we won't last

e|----------------------|
B|----------------------|
G|----------------------|   x1
D|----------------------|
A|---9---7---5---5------|
E|---7---5---3---2------|

[Verse 4]

"And I am sorry, that I am not the same kid..."


e|----------------------|
B|----------------------|
G|----------------------|   x4
D|-------7--------------|
A|---9---5---7---5------|
E|---7-------5---3------|

[Outro]

e|----------------------|
B|----------------------|
G|----------------------|   x3
D|-------7--------------|
A|---9---5---7---5------|
E|---7-------5---3------|

e|----------------------|
B|----------------------|
G|----------------------|   x1
D|----------------------|
A|---9---7---5---5------|
E|---7---5---3---2------|


************************************

| x   Dead note

************************************

            
            
Suggest correction
Creating personal tab
Creating personal tab
You can edit any tab online and save it as your Personal.

You can edit, replace or remove any tab part or add personal notes – all changes will be seen only by you.

Personal tabs can be accessed anytime from any device, even offline.
Learn more »
Give kudos to tab author, rate the tab!
1 2 3 4 5
comments
print report bad tab
guest
You may want to rate the tab now too:
select rating
Wanna post a correction for this tab? Suggest correction