Oops, an error
Loading. Please wait.

Dear Everyone Im Sorry tab

718 views 1 this week
no commentswrite comment
1 2 3 4 5
1 last vote to show rating
add to favorites
×
Save as Personal and add changes to this tab that will be seen only by you. Learn more ›
×
You can save this tab as Personal to edit and correct it or add notes. All changes will be seen only by you. Learn more »
launch autoscroll
font size
0
reset
how to read this tab
guitar tuner
edit
Autoscroll
slow
fast
+/-
esc
set tempo
stop
Dear Everyone, I'm Sorry tab by McCafferty off of the album 'Forest Life'


[Intro] x2

Picked
Picking fretted E to the open D back and forth

e|----------------|----------------|----------------|----------------|
B|----------------|----------------|----------------|----------------|
G|----------------|----------------|----------------|----------------|
D|--0---0---0---0-|--0---0---0---0-|--0---0---0---0-|--0---0---0---0-|
A|----------------|----------------|----------------|----------------|
E|3---3---3---3---|5---5---5---5---|7---7---7---7---|10--12--10--9---|

e|----------------|----------------|----------------|----------------|
B|----------------|----------------|----------------|----------------|
G|----------------|----------------|----------------|----------------|
D|--0---0---0---0-|--0---0---0---0-|--0---0---0---0-|--0---0---0---0-|
A|----------------|----------------|----------------|----------------|
E|3---3---3---3---|7---7---7---7---|2---2---2---2---|7---7---5---5---|


[Verse]

Strummed
And it's lipped sealed eyes locked...(Lyrics only meant to indicate the verse not to line up with the tab)

e|---------------------------------------------------------------------------|
B|---------------------------------------------------------------------------|
G|---------------------------------------------------------------------------|
D|---------------------------------------------------------------------------|
A|5-5-5-5--5-5-5-5--5-5-5-5--7-7-7-7--5-5-5-5--5-5-5-5--5-5-5-5--7-7-7-7-----|
E|3-3-3-3--5-5-5-5--7-7-7-7--5-5-5-5--3-3-3-3--5-5-5-5--2-2-2-2--5-5-5-5-----|

(Done twice before lyrics come in)

There is a stop at the lyrics few"Lips sealed, eyes locked, head down *stop guitar* just like you mean it". 
Just generally just listen to the song for small things like that and strumming pattern:)

Repeat back and forth until break down of:


[Verse 2] - Strummed 2

Wooo... I'll kick the door...(Lyrics only meant to indicate the verse not to line up with the tab)
e|---------------------------------------------------------------------------|
B|---------------------------------------------------------------------------|
G|---------------------------------------------------------------------------|
D|---------------------------------------------------------------------------|
A|5-5-5-5--12-12-12-12--7-7-7-7--9-9-9-9-------------------------------------|
E|3-3-3-3--10-10-10-10--5-5-5-5--7-7-7-7-------------------------------------|

Repeat to end!

            
            
Suggest correction
Creating personal tab
Creating personal tab
You can edit any tab online and save it as your Personal.

You can edit, replace or remove any tab part or add personal notes – all changes will be seen only by you.

Personal tabs can be accessed anytime from any device, even offline.
Learn more »
Give kudos to tab author, rate the tab!
1 2 3 4 5
comments
print report bad tab
guest
You may want to rate the tab now too:
select rating
Wanna post a correction for this tab? Suggest correction