Oops, an error
Loading. Please wait.

The Well Of Lonliness bass

25 views 1 this week
no commentswrite comment
1 2 3 4 5
3 more votes to show rating
add to favorites
×
Save as Personal and add changes to this tab that will be seen only by you. Learn more ›
×
You can save this tab as Personal to edit and correct it or add notes. All changes will be seen only by you. Learn more »
launch autoscroll
font size
0
reset
guitar tuner
edit
Autoscroll
slow
fast
+/-
esc
set tempo
stop
The Well of Lonliness
by McCarthy
From I Am a Wallet (1987)
Tabbed by Jake

E Major, Standard Tuning

There are four parts to this song:

[Intro]
G|-----------------|
D|----6-67-7-676---| (x4)
A|7-77-----------7-|
E|-----------------|

[Verse]
G|----------------|----------------|
D|-------9-9-7979-|7-7-777---------| (x2)
A|7-7-777---------|-------9-9-7979-|
E|----------------|----------------|

(As a variation, just play the root notes in the verse.)

[Intro]
G|-----------------|
D|----6-67-7-676---| (x4)
A|7-77-----------7-|
E|-----------------|

[Verse]
G|----------------|----------------|
D|-------9-9-7979-|7-7-777---------| (x2)
A|7-7-777---------|-------9-9-7979-|
E|----------------|----------------|

[Pre-Chorus]
G|-----------------|----------------|
D|-------6-6-66666-|7-7-777-7-7-777-|  (x2)
A|7-7-777----------|----------------|
E|-----------------|----------------|
                       
(There's also an optional variation that looks like this, often in the second time through.)   
G|-----------------|----------------|
D|-----------66666-|7-7-777-7-7-777-|  
A|7-7-777----------|----------------|
E|-----------------|----------------|

Chorus: (The bass is pretty muddy in this part, so this isn't accurate, but this is what I play.)
G|-----------------|
D|-----------------|   (x4)
A|7-7-4-4----------|
E|----------797975-|

[Verse]
G|----------------|----------------|
D|-------9-9-7979-|7-7-777---------| (x2)
A|7-7-777---------|-------9-9-7979-|
E|----------------|----------------|

[Intro]
G|-----------------|
D|----6-67-7-676---| (x4)
A|7-77-----------7-|
E|-----------------|

[Verse]
G|----------------|----------------|
D|-------9-9-7979-|7-7-777---------| (x2)
A|7-7-777---------|-------9-9-7979-|
E|----------------|----------------|

[Intro]
G|-----------------|
D|----6-67-7-676---| (x4)
A|7-77-----------7-|
E|-----------------|

[Verse]
G|----------------|----------------|
D|-------9-9-7979-|7-7-777---------| (x2)
A|7-7-777---------|-------9-9-7979-|
E|----------------|----------------|

[Pre-Chorus]
G|-----------------|----------------|
D|-------6-6-66666-|7-7-777-7-7-777-|  (x2)
A|7-7-777----------|----------------|
E|-----------------|----------------|
                       
(There's also an optional variation that looks like this, often in the second time through.)
        
G|-----------------|----------------|
D|-----------66666-|7-7-777-7-7-777-|  
A|7-7-777----------|----------------|
E|-----------------|----------------|

[Chorus]
(The bass is pretty muddy in this part, so this isn't accurate, but this is what I play.)
G|-----------------|
D|-----------------|   (x6)
A|7-7-4-4----------|
E|----------797975-|

            
            
Suggest correction
Creating personal tab
Creating personal tab
You can edit any tab online and save it as your Personal.

You can edit, replace or remove any tab part or add personal notes – all changes will be seen only by you.

Personal tabs can be accessed anytime from any device, even offline.
Learn more »
Give kudos to tab author, rate the tab!
1 2 3 4 5
comments
print report bad tab
guest
You may want to rate the tab now too:
select rating
Wanna post a correction for this tab? Suggest correction