Oops, an error
Loading. Please wait.

Do Ya Acoustic tab

version 1
version 1

Whole song

by McFly
6,439 views 3 this week
2 commentsread comments
1 2 3 4 5
2 more votes to show rating
add to favorites
×
Save as Personal and add changes to this tab that will be seen only by you. Learn more ›
×
You can save this tab as Personal to edit and correct it or add notes. All changes will be seen only by you. Learn more »
launch autoscroll
font size
0
reset
how to read this tab
guitar tuner
edit
Autoscroll
slow
fast
+/-
esc
set tempo
stop
Author
-------------------------------------------------------------------------------
                             Do ya (Acoustic) - Mcfly
-------------------------------------------------------------------------------
Tabbed by: Nathalie a.k.a musicsz._
Email: musicsz._@hotmail.com

Tuning: Standard

This is a remake of my previous chords, apparently people didn't understand what i did 
i'm making the tab version.

Verse 1:
e|--3-----0---------------------------3----0----0-/-2------------------3-----|
B|--3-----0---------------------------3----0----0-/-2------------------3-----|
G|--4-----0-----5----7<---------------4----0----2-/-4-/-5-/-6-/-7--7---4-----|
D|--5-----2-----5----7
                

            
            
Suggest correction
Creating personal tab
Creating personal tab
You can edit any tab online and save it as your Personal.

You can edit, replace or remove any tab part or add personal notes – all changes will be seen only by you.

Personal tabs can be accessed anytime from any device, even offline.
Learn more »
Give kudos to tab author, rate the tab!
1 2 3 4 5
comments
print report bad tab
2 comments total.
0 reply
musicsz._ 70 Jul 19, 2008 05:55 AM

Sorry. i just figured out that for the brigde, it's suppose to be C and then Cm. then after when it moves to 1 fret higher, its like you play C and Cm but in the tab version.
So instead of :
e|------x---5-------------------|
B|------x---5-------------------|
G|--5---8---6---9---8

0 reply
slevin_89 21 Nov 28, 2008 10:57 AM

also drop all the strings one step then it sounds perfect

guest
You may want to rate the tab now too:
select rating
Wanna post a correction for this tab? Suggest correction