Oops, an error
Loading. Please wait.

Dont Know Why tab

version 2
version 2

Whole song

by McFly
10,475 views 9 this week
6 commentsread comments
1 2 3 4 5
x 6
add to favorites
×
Save as Personal and add changes to this tab that will be seen only by you. Learn more ›
×
You can save this tab as Personal to edit and correct it or add notes. All changes will be seen only by you. Learn more »
launch autoscroll
font size
0
reset
how to read this tab
guitar tuner
edit
Autoscroll
slow
fast
+/-
esc
set tempo
stop
McFly 
Don't Know Why
Transcribed by Soch H.
Email: vhhendrixcrazy@yahoo.com 
Two Guitars play in this song

Capo 6th Fret
Gtr I
D           Cadd9
One by one, drinks are gone
G             D
Do I have to stay?
D              Cadd9
Hate the sound of one more pound
G             D
As it rolls away

G
Why did I need your proof?
                   D
When I knew the truth

Chorus:
D
And I don't know why
                    Cadd9
I just let it slip by
             G
Me all the time
                       D
I just wish you'd of tried

D            Cadd9
I don’t want to know your game
G               D
Let alone her name
D             Cadd9
No matter what you say to me
G                D
We are not the same

G
Why do you make me cry?
            D
Try to justify
G
Don't right your wrong with my mistakes
D       
Cause my head's held high

Chorus (x2)

Bridge Riff: (Relative to capo)
|------------------------------2-2-2-2-2-2-| 
|------------------------------3-3-3-3-3-3-| 
|-2h3--2--0--------------------2-2-2-2-2-2-| 
|------------3--2--2h3--2------0-0-0-0-0-0-| 
|--------------------------3---------------| 
|------------------------------------------| (x2) 


Dreams we have as kids all fade away
Now its not the same

Solo: (2:49) (No capo) Gtr II
|---------------------------------------------------------------|
|------------------------------------------14--13---------------|
|-------13--15b17--15b17--15b17--15b17r-13--------15-13-13~-----|
|-13h15---------------------------------------------------------|
|---------------------------------------------------------------|
|---------------------------------------------------------------|

|---------------------------------------------------------------|
|---------------14-13--------------16=b18r-14-13-13h14----13----|
|--------13-x-x-------15-13-13~------------------------15----15-|
|-13h15---------------------------------------------------------|
|---------------------------------------------------------------|
|---------------------------------------------------------------|

|---------------------------------13----------------13----------|
|------------------------------13----16p13-------13----16p13----|
|-13~-------13--------13-15b17-------------15b17----------------|
|-----13h15-----13h15-------------------------------------------|
|---------------------------------------------------------------|
|---------------------------------------------------------------|

|---------------------------------------------------------------|
|-----------------------------14--13----------------------------|
|-15b17-13~--13~--15b=17---13--------15--13-13~-----------13----|
|---------------------------------------------------13h15-------|
|---------------------------------------------------------------|
|---------------------------------------------------------------|

|----------13----------------13---------------------------------|
|-------13----16p13-------13----16p13---------------------------|
|-15b17-------------15b17-------------15b17-15~-----------------|
|---------------------------------------------------------13----|
|---------------------------------------------------13h15-------|
|---------------------------------------------------------------|

|----------------------13---------------------------------------|
|-------------------13----16b18r-14-13--------------------------|
|-------13---15b=17---------------------------------------------|
|-13h15---------------------------------------------------------|
|---------------------------------------------------------------|
|---------------------------------------------------------------|

(3:36)
|----------------------13---------------------------------------|
|--------------------13---16p13---------------------------------|
|-13~----------15b17------------15b17rp13-13--------------------|
|-----15-13~----------------------------------------------------|
|---------------------------------------------------------------|
|---------------------------------------------------------------|

|-------------------------------------|
|-------------------------------------|
|-13--13-13-13-13-13-13-13-13-15b17r--|
|-------------------------------------|
|-------------------------------------|
|-------------------------------------|(x2)
Ending:
|-------------------------------------------------|
|-------------------------------------------------|
|-13--13-13-13-13-13-13-13-13-15b17rp13--15b17===-|
|-------------------------------------------------|
|-------------------------------------------------|
|-------------------------------------------------|

Chorus (x2)

Outro Improv. Blues Riff: (Capo 4th Fret, relative to capo)
-You can also improvise here b/c its all just improv. anyway- Gtr I
|-------0--0----0-------------0------0-------------|
|-----0----0------0---------0------0---------------|
|--------------------------------------------------|
|-2----------------------0-------------------------|
|--------------------2h4--------4------------------|
|---------------------------------------3b4--0-----|

|-----------------------------------------------------------------|
|-----------------------------------------------------------------|
|-----------------2b2.5---2b3rp0---0------------------------------|
|-----------2-2h5----------------2---2-0-0h2~--0--------------2---|
|-------2h5---------------------------------------0---------------|
|-0h3h5-----------------------------------------------3b4-----0---|

Play these chords with the capo: (Capo on the 6th Fret)
D:      xx0232
Cadd9:  x32033
G:      320033
Suggest correction
Creating personal tab
Creating personal tab
You can edit any tab online and save it as your Personal.

You can edit, replace or remove any tab part or add personal notes – all changes will be seen only by you.

Personal tabs can be accessed anytime from any device, even offline.
Learn more »
comments
print report bad tab
6 comments total. Showing first comments.
0 reply
adam smyth 41 Feb 05, 2006 01:11 AM

solo sounds great m8. It wud be more clearer if u tabbed it agen with one cappo 6 and one with no cappo

0 reply
vhhendrixcrazy 2,770 Feb 05, 2006 10:47 AM

well, 2 guitars plays in this song. one guitar plays with the capo on the 6th fret, and the second guitar plays with no capo.

0 reply
Mcfly_182 10 Nov 01, 2006 12:41 AM

What about intro? good tab though, thanks :)

guest
You may want to rate the tab now too:
select rating
Wanna post a correction for this tab? Suggest correction