Oops, an error
Loading. Please wait.

Dynamite tab

version 1
version 1

Whole song

Interactive

by McFly
8,163 views 1 this week
no commentswrite comment
1 2 3 4 5
x 4
add to favorites
×
Save as Personal and add changes to this tab that will be seen only by you. Learn more ›
×
You can save this tab as Personal to edit and correct it or add notes. All changes will be seen only by you. Learn more »
launch autoscroll
font size
0
reset
how to read this tab
guitar tuner
edit
Autoscroll
slow
fast
+/-
esc
set tempo
stop
Author
McFly cover Taio Cruz's Dynamite

Verse  (Tom)
e-----------------------------------|
B------9---7------12---14-----------|
G------9---8------13---14-----------|
D-----11---9------14---14-----------|   x4
A-----------------------------------|
E-----------------------------------|

Danny (do this through the verses)

e------------------|
B---9-9-9-9-9-9-9--|
G------------------|
D------------------|
A------------------|
E------------------|



e-------------------------------------------|
B--------------9--------7------12---14------|
G--------------9--------8------13---14------|   x2
D-------------11--------9------14---14------|
A-------------------------------------------|
E-------------------------------------------|
  And it goes on and on and on

Pre-chorus (Tom & Danny)
 in this part you can give it your own rhytm
e------------------------------------------------|
B----9--9--9-7-7-7-7-7-7-7-7-12-12-12-14-14-14---|
G----9--9--9-8-8-8-8-8-8-8-8-13-13-13-14-14-14---|
G---11-11-11-9-9-9-9-9-9-9-9-14-14-14-14-14-14---|
A------------------------------------------------|
E------------------------------------------------
 I throw my hands up in the air sometimes
  Saying Aaaaayooooo   Gotta let go
  I wanna celebrate and live my life
  Saying Aaaaayooooo   Baby, let’s go

Chorus  (Tom)
e--------------------------------------------------------|
B--------------------------------------------------------|
G----------------6-6-6-6-6-4-4-4-4-4-4-4---------2-2-2-2-|
D----------------6-6-6-6-6-4-4-4-4-4-4-4-2-2-2-2-2-2-2-2-|
A----------------4-4-4-4-4-2-2-2-2-2-2-2-2-2-2-2-0-0-0-0-|
E----------------------------------------0-0-0-0---------|
  ‘Cause we gon’ rock this club  We gon’ go all night

e--------------------------------------------------------|  in here you can
B-------------------------------------------x-x-x-x------|  add something to
G---------6-6-6-6-4-4-4-4-4-4-4-----2-----2-x-x-x-x------|  make it sound
D---------6-6-6-6-4-4-4-4-4-4-4-2-2-2-2-2-2-x-x-x-x------|  better
A---------4-4-4-4-2-2-2-2-2-2-2-2-2-0-2-2-0-x-x-x-x------|
E-------------------------------0-0---0-0----------------|
  We gon’ light it up Like it’s dynamite

e--------------------------------------------------------|
B--------------------------------------------------------|
G--------6-6-6-6-6-4-4-4-4-4----------2-2----------------|
D--------6-6-6-6-6-4-4-4-4-4-2-2-2----2-2----------------|
A--------4-4-4-4-4-2-2-2-2-2-2-2-2----0-0----------------|
E----------------------------0-0-0-----------------------|
  Cause I told you once Now I told you twice
  We gon’ light it up  Like it’s dynamite

Danny (Chorus)

e-------------------------------------------------------------------|
B-------------------------------------------------------------------|
G--6666666-4444444-9999999-14141414-6666666-4444444-----2-2-----2---|
D--xxxxxxx-xxxxxxx-xxxxxxx-xxxxxxxx-xxxxxxx-xxxxxxx-2-2-2-2-2-2-2---|  x2
A--4444444-2222222-7777777-12121212-4444444-2222222-2-2-0-0-2-2-0---|
E---------------------------------------------------0-0-----0-0-----|

Verse  (Tom)
e-----------------------------------|
B------9---7------12---14-----------|
G------9---8------13---14-----------|
D-----11---9------14---14-----------|   x4
A-----------------------------------|
E-----------------------------------|


e-------------------------------------------|
B--------------9--------7------12---14------|
G--------------9--------8------13---14------|   x2
D-------------11--------9------14---14------|
A-------------------------------------------|
E-------------------------------------------|
  And it goes on and on and on

 Pre-Chorus
e------------------------------------------------|
B----9--9--9-7-7-7-7-7-7-7-7-12-12-12-14-14-14---|
G----9--9--9-8-8-8-8-8-8-8-8-13-13-13-14-14-14---|
D---11-11-11-9-9-9-9-9-9-9-9-14-14-14-14-14-14---|
A------------------------------------------------|
E------------------------------------------------
  I throw my hands up in the air sometimes
  Saying Aaaaayooooo   Gotta let go
  I wanna celebrate and live my life
  Saying Aaaaayooooo   Baby, let’s go

Chorus  (Tom)
e--------------------------------------------------------|
B--------------------------------------------------------|
G----------------6-6-6-6-6-4-4-4-4-4-4-4---------2-2-2-2-|
D----------------6-6-6-6-6-4-4-4-4-4-4-4-2-2-2-2-2-2-2-2-|
A----------------4-4-4-4-4-2-2-2-2-2-2-2-2-2-2-2-0-0-0-0-|
E----------------------------------------0-0-0-0---------|
  ‘Cause we gon’ rock this club  We gon’ go all night

e--------------------------------------------------------|  in here you can
B-------------------------------------------x-x-x-x------|  add something to
G---------6-6-6-6-4-4-4-4-4-4-4-----2-----2-x-x-x-x------|  make it sound
D---------6-6-6-6-4-4-4-4-4-4-4-2-2-2-2-2-2-x-x-x-x------|  better
A---------4-4-4-4-2-2-2-2-2-2-2-2-2-0-2-2-0-x-x-x-x------|
E-------------------------------0-0---0-0----------------|
  We gon’ light it up Like it’s dynamite

e--------------------------------------------------------|
B--------------------------------------------------------|
G--------6-6-6-6-6-4-4-4-4-4----------2-2----------------|
D--------6-6-6-6-6-4-4-4-4-4-2-2-2----2-2----------------|
A--------4-4-4-4-4-2-2-2-2-2-2-2-2----0-0----------------|
E----------------------------0-0-0-----------------------|
  Cause I told you once Now I told you twice
  We gon’ light it up  Like it’s dynamite

Danny (Chorus)

e-------------------------------------------------------------------|
B-------------------------------------------------------------------|
G--6666666-4444444-9999999-14141414-6666666-4444444-----2-2-2-2-2---|
D--xxxxxxx-xxxxxxx-xxxxxxx-xxxxxxxx-xxxxxxx-xxxxxxx-2-2-2-2-2-2-2---|  x2
A--4444444-2222222-7777777-12121212-4444444-2222222-2-2-0-0-2-2-0---|
E---------------------------------------------------0-0-----0-0-----|

I’m gonna take it all out
I’m gonna be the last one standing
I’m alone and all I
I’m gonna be the last one landing
‘Cause I, I, Believe it
And I, I, I
I just want it all
I just want it all
so put your hands in the air
Hands in the air
Put your hands in the air, air, air,air, air

e----------------------         
B----------------------         
G--6----4---------2----         
D--6(x4)4(x4)2(x4)2(x4)         
A--4----2----2----0----         
E------------0---------         


  (No chords, just a humming)

  I throw my hands up in the air sometimes
  Saying Aaaaayooooo  Gotta leeeet go   <---(pick slide!)

e--------------------------------------------|
B--------------------------------------------|
G--6-6-6-6-4-4-4-4-4-4-----------2-2-2-2-2---|
D--6-6-6-6-4-4-4-4-4-4-2-2-2-2-2-2-2-2-2-2---|
A--4-4-4-4-2-2-2-2-2-2-2-2-2-2-2-0-0-0-0-0---|
E----------------------0-0-0-0-0-------------|
  I wanna celebrate and live my life
  Saying Aaaaayooooo  Baby, let’s go

e--------------------------------------------------------|
B--------------------------------------------------------|
G----------------6-6-6-6-6-4-4-4-4-4-4-4---------2-2-2-2-|
D----------------6-6-6-6-6-4-4-4-4-4-4-4-2-2-2-2-2-2-2-2-|
A----------------4-4-4-4-4-2-2-2-2-2-2-2-2-2-2-2-0-0-0-0-|
E----------------------------------------0-0-0-0---------|
  ‘Cause we gon’ rock this club  We gon’ go all night

e--------------------------------------------------------|
B--------------------------------------------------------|
G---------6-6-6-6-4-4-4-4-4-4-4-----2-----2--------------|
D---------6-6-6-6-4-4-4-4-4-4-4-2-2-2-2-2-2--------------|
A---------4-4-4-4-2-2-2-2-2-2-2-2-2-0-2-2-0--------------|
E-------------------------------0-0---0-0----------------|
  We gon’ light it up Like it’s dynamite

e--------------------------------------------------------|
B--------------------------------------------------------|
G--------6-6-6-6-6-4-4-4-4-4----------2-2----------------|
D--------6-6-6-6-6-4-4-4-4-4-2-2-2----2-2----------------|
A--------4-4-4-4-4-2-2-2-2-2-2-2-2----0-0----------------|
E----------------------------0-0-0-----------------------|
  Cause I told you once Now I told you twice
  We gon’ light it up  Like it’s dynamite
e-------------------------------------------------------------------|
B-------------------------------------------------------------------|
G--6666666-4444444-9999999-14141414-6666666-4444444-----2-2-----2---|
D--xxxxxxx-xxxxxxx-xxxxxxx-xxxxxxxx-xxxxxxx-xxxxxxx-2-2-2-2-2-2-2---|  x2
A--4444444-2222222-7777777-12121212-4444444-2222222-2-2-0-0-2-2-0---|
E---------------------------------------------------0-0-----0-0-----|

Outro

e------------------------------------------------|
B------------------------------------------------|
G---66666666-4444444444-99999999-141414141414----|
D---xxxxxxxx-xxxxxxxxxx-xxxxxxxx-xxxxxxxxxxxx----|
A---44444444-2222222222-77777777-121212121212----|
E------------------------------------------------|

e------------------------------------------------|
B------------------------------------------------|
G-------------6---------4----------------2-------|
D-------------6---------4------------2-2-2-------|
A-------------4---------2------------2-2-0-------|
E------------------------------------0-0---------|
   We're gonna light it up like it's dynamite

            
            
Suggest correction
Creating personal tab
Creating personal tab
You can edit any tab online and save it as your Personal.

You can edit, replace or remove any tab part or add personal notes – all changes will be seen only by you.

Personal tabs can be accessed anytime from any device, even offline.
Learn more »
comments
print report bad tab
guest
You may want to rate the tab now too:
select rating
Wanna post a correction for this tab? Suggest correction