Oops, an error
Loading. Please wait.

Everybody Knows tab

version 1
version 1

Whole song

Interactive

by McFly
29,676 views 3 this week
4 commentsread comments
1 2 3 4 5
x 12
add to favorites
×
Save as Personal and add changes to this tab that will be seen only by you. Learn more ›
×
You can save this tab as Personal to edit and correct it or add notes. All changes will be seen only by you. Learn more »
launch autoscroll
font size
0
reset
how to read this tab
guitar tuner
edit
Autoscroll
slow
fast
+/-
esc
set tempo
stop
Author
Difficulty
----------------------------------------------------------------------
                         Everybody Knows - Mcfly
----------------------------------------------------------------------
Tabbed by: Ailsa C
Email: ailsafern@hotmail.co.uk

Tuning: Standard



INTRO:

e|--------------------------------------------------------------------|
B|--------------------------------------------------------------------|
G|--------------2--2---x---x----6--6----4--4--------------------------|
D|--x---2--2----2--2---x---x----6--6----4--4--(slide down frets here)-|
A|--x---2--2----0--0---x---x----4--4----2--2--------------------------|
E|--x---0--0----------------------------------------------------------|

e|--------------------------------------------------------------------|
B|--------------------------------------------------------------------|
G|-----------2--2----x-x-x----6--6----4--4---x-x-x----------(x2)------|
D|---2--2----2--2----x-x-x----6--6----4--4---x-x-x--------------------|
A|---2--2----0--0----x-x-x----4--4----2--2---x-x-x--------------------|
E|---0--0-------------------------------------------------------------|



VERSE:
(The parts during the lyrics are palm muted but the riff in between lyrics aren’t.)

e|--------------------------------------------------------------------|
B|--------------------------------------------------------------------|
G|-----------------2--2—-2--2----6—-6--6--6----4--4--4--4-------------|
D|---2—-2--2--2----2--2—-2--2----6—-6—-6--6----4--4--4--4-------------|
A|---2--2--2--2----0--0--0--0----4--4--4--4----2--2--2--2-------------|
E|---0--0--0--0-------------------------------------------------------|
   Sun is in the sky and it is gonna be a glorious day.

e|--------------------------------------------------------------------|
B|--------------------------------------------------------------------|
G|-----------2--2----x-x-x----6--6----4--4---x-x-x--------------------|
D|---2--2----2--2----x-x-x----6--6----4--4---x-x-x--------------------|
A|---2--2----0--0----x-x-x----4--4----2--2---x-x-x--------------------|
E|---0--0-------------------------------------------------------------|

e|--------------------------------------------------------------------|
B|--------------------------------------------------------------------|
G|-----------------2--2—-2--2----6—-6--6--6----4--4--4--4-------------|
D|---2—-2--2--2----2--2—-2--2----6—-6—-6--6----4--4--4--4-------------|
A|---2--2--2--2----0--0--0--0----4--4--4--4----2--2--2--2-------------|
E|---0--0--0--0-------------------------------------------------------|
   So pour yourself a coffee, put your clothes back on and tell me your name.

e|--------------------------------------------------------------------|
B|--------------------------------------------------------------------|
G|-----------2--2----x-x-x----6--6----4--4---x-x-x--------------------|
D|---2--2----2--2----x-x-x----6--6----4--4---x-x-x--------------------|
A|---2--2----0--0----x-x-x----4--4----2--2---x-x-x--------------------|
E|---0--0-------------------------------------------------------------|

(REPEAT x2)



BRIDGE:

e|--------------------------------------------------------------------|
B|--------------------------------------------------------------------|
G|-----2~-----------------------4~------------------------------------|
D|-----2~-----------------------4~------------------------------------|
A|-----0~-----------------------2~------------------------------------|
E|--------------------------------------------------------------------|
    Nothing really matters, nothing really matters at all

e|--------------------------------------------------------------------|
B|--------------------------------------------------------------------|
G|-------2~----------------------------4~-----------------------------|
D|-------2~----------------------------4~-----------------------------|
A|-------0~----------------------------2~-----------------------------|
E|--------------------------------------------------------------------|
    When all your dreams are shattered everything is beautiful.


Palm muted:
e|--------------------------------------------------------------------|
B|--------------------------------------------------------------------|
G|---2--2--2--2--2--2--2--2--2--2--2--2--2--2--2--2-------------------|
D|---2--2--2--2--2--2--2--2--2--2--2--2--2--2--2--2-------------------|
A|---0--0--0--0--0--0--0--0--0--0--0--0--0--0--0--0-------------------|
E|--------------------------------------------------------------------|
Nothing ever happens, they think we’d waste our lives but they’re 

e|--------------------------------------------------------------------|
B|--------------------------------------------------------------------|
G|-4--4--4--4--4--4--4--4---------2--2--2-----2--2--2-----------------|
D|-4--4--4--4--4--4--4--4---------2--2--2-----2--2--2-----------------|
A|-2--2--2--2--2--2--2--2---------0--0--0-----0--0--0-----------------|
E|--------------------------------------------------------------------|
   wrong.       We’re moving on.    



CHORUS:
e|--------------------------------------------------------------------|
B|--------------------------------------------------------------------|
G|------2-2----6--6---4-4------------2-2----6--6---4-4----------------|
D|--2---2-2----6--6---4-4--------2---2-2----6--6---4-4----------------|
A|--2---0-0----4--4---2-2--------2---0-0----4--4---2-2----------------|
E|--0----------------------------0------------------------------------|
   Everybody   knows            Everybody  knows

e|--------------------------------------------------------------------|
B|--------------------------------------------------------------------|
G|------2-2----6--6---4-4---------------------7-7-7-7-7-7-7-7---------|
D|--2---2-2----6--6---4-4-------------------s-7-7-7-7-7-7-7-7---------|
A|--2---0-0----4--4---2-2---------------------5-5-5-5-5-5-5-5---------|
E|--0-----------------------------------------------------------------|
   Everybody   knows   We’re gonna die in this town.     

e|--------------------------------------------------------------------|
B|--------------------------------------------------------------------|
G|---2--2--2------2--2--2---------------------------------------------|
D|---2--2--2------2--2--2---------------------------------------------|
A|---0--0--0------0--0--0---------------------------------------------|
E|--------------------------------------------------------------------|



After chorus:
e|--------------------------------------------------------------------|
B|--------------------------------------------------------------------|
G|-----------2--2----x-x-x----6--6----4--4---x-x-x--------------------|
D|---2--2----2--2----x-x-x----6--6----4--4---x-x-x---------(x2)-------|
A|---2--2----0--0----x-x-x----4--4----2--2---x-x-x--------------------|
E|---0--0-------------------------------------------------------------|



VERSE: (Again, The parts during the lyrics are palm muted but the riff in between lyrics aren’t.)

e|--------------------------------------------------------------------|
B|--------------------------------------------------------------------|
G|-------------------2--2—-2--2------6—-6--6--6------4--4--4--4-------|
D|---2—-2--2--2------2--2—-2--2------6—-6—-6--6------4--4--4--4-------|
A|---2--2--2--2------0--0--0--0------4--4--4--4------2--2--2--2-------|
E|---0--0--0--0-------------------------------------------------------|
   My voice is gone from screaming and my body aches from giving em hell.

e|--------------------------------------------------------------------|
B|--------------------------------------------------------------------|
G|-----------2--2----x-x-x----6--6----4--4---x-x-x--------------------|
D|---2--2----2--2----x-x-x----6--6----4--4---x-x-x--------------------|
A|---2--2----0--0----x-x-x----4--4----2--2---x-x-x--------------------|
E|---0--0-------------------------------------------------------------|

e|--------------------------------------------------------------------|
B|--------------------------------------------------------------------|
G|-----------------2--2—-2--2----6—-6--6--6----4--4--4--4-------------|
D|---2—-2--2--2----2--2—-2--2----6—-6—-6--6----4--4--4--4-------------|
A|---2--2--2--2----0--0--0--0----4--4--4--4----2--2--2--2-------------|
E|---0--0--0--0-------------------------------------------------------|
   You’ve gotta know the truth that we’re not in this for the cash but it helps.

e|--------------------------------------------------------------------|
B|--------------------------------------------------------------------|
G|-----------2--2----x-x-x----6--6----4--4---x-x-x--------------------|
D|---2--2----2--2----x-x-x----6--6----4--4---x-x-x--------------------|
A|---2--2----0--0----x-x-x----4--4----2--2---x-x-x--------------------|
E|---0--0-------------------------------------------------------------|



BRIDGE:

e|--------------------------------------------------------------------|
B|--------------------------------------------------------------------|
G|-----2~-----------------------4~------------------------------------|
D|-----2~-----------------------4~------------------------------------|
A|-----0~-----------------------2~------------------------------------|
E|--------------------------------------------------------------------|
    Nothing really matters, nothing really matters at all

e|--------------------------------------------------------------------|
B|--------------------------------------------------------------------|
G|-------2~----------------------------4~-----------------------------|
D|-------2~----------------------------4~-----------------------------|
A|-------0~----------------------------2~-----------------------------|
E|--------------------------------------------------------------------|
    When all your dreams are shattered everything is beautiful.

Palm muted:
e|--------------------------------------------------------------------|
B|--------------------------------------------------------------------|
G|---2--2--2--2--2--2--2--2--2--2--2--2--2--2--2--2-------------------|
D|---2--2--2--2--2--2--2--2--2--2--2--2--2--2--2--2-------------------|
A|---0--0--0--0--0--0--0--0--0--0--0--0--0--0--0--0-------------------|
E|--------------------------------------------------------------------|
Nothing ever happens, they think we’d waste our lives but they’re 

e|--------------------------------------------------------------------|
B|--------------------------------------------------------------------|
G|-4--4--4--4--4--4--4--4---------2--2--2-----2--2--2-----------------|
D|-4--4--4--4--4--4--4--4---------2--2--2-----2--2--2-----------------|
A|-2--2--2--2--2--2--2--2---------0--0--0-----0--0--0-----------------|
E|--------------------------------------------------------------------|
   Wrong.       We’re moving on.    



  CHORUS:
e|--------------------------------------------------------------------|
B|--------------------------------------------------------------------|
G|------2-2----6--6---4-4------------2-2----6--6---4-4----------------|
D|--2---2-2----6--6---4-4--------2---2-2----6--6---4-4----------------|
A|--2---0-0----4--4---2-2--------2---0-0----4--4---2-2----------------|
E|--0----------------------------0------------------------------------|
   Everybody   knows            Everybody  knows

e|--------------------------------------------------------------------|
B|--------------------------------------------------------------------|
G|------2-2----6--6---4-4---------------------7-7-7-7-7-7-7-7---------|
D|--2---2-2----6--6---4-4-------------------s-7-7-7-7-7-7-7-7---------|
A|--2---0-0----4--4---2-2---------------------5-5-5-5-5-5-5-5---------|
E|--0-----------------------------------------------------------------|
   Everybody   knows   We’re gonna die in this town.     


e|--------------------------------------------------------------------|
B|--------------------------------------------------------------------|
G|---2--2--2------2--2--2---------------------------------------------|
D|---2--2--2------2--2--2---------------------------------------------|
A|---0--0--0------0--0--0---------------------------------------------|
E|--------------------------------------------------------------------|
      


SOLO:
e|--------------------------------------------------------------------|
B|--7b9b7--5---7s9---9h10p9-----------9-------------------------------|
G|-----------------------------11--9----------------------------------|
D|---------------------------------------9--9---9h11p9----------------|
A|--------------------------------------------------------------------|
E|--------------------------------------------------------------------|



e|---------------------------------------------s14---12---------------|
B|---5----7b9--7---5---7---9---s14---12---14--------------------------|
G|--------------------------------------------------------------------|
D|--------------------------------------------------------------------|
A|--------------------------------------------------------------------|
E|--------------------------------------------------------------------|

e|--12h14--16—s17---16---14--16---------------------------------------|
B|-------------------------------12--12-------------------------------|
G|--------------------------------------------------------------------|
D|--------------------------------------------------------------------|
A|--------------------------------------------------------------------|
E|--------------------------------------------------------------------|

Tapped:
e|--16----------14---------16------14-------16-----14-----------------|
B|------17--17-----17--17-----17-------17------17-----17---17--17~----|
G|--------------------------------------------------------------------|
D|--------------------------------------------------------------------|
A|--------------------------------------------------------------------|
E|--------------------------------------------------------------------|



Played during solo:
e|--------------------------------------------------------------------|
B|--------------------------------------------------------------------|
G|-----------2--2----x-x-x----6--6----4--4---x-x-x--------------------|
D|---2--2----2--2----x-x-x----6--6----4--4---x-x-x---------(x3)-------|
A|---2--2----0--0----x-x-x----4--4----2--2---x-x-x--------------------|
E|---0--0-------------------------------------------------------------|

e|--------------------------------------------------------------------|
B|--------------------------------------------------------------------|
G|------------7-7-7-7-7-7-7-7-------2--2--2------2--2--2--------------|
D|----------s-7-7-7-7-7-7-7-7-------2--2--2------2--2--2--------------|
A|------------5-5-5-5-5-5-5-5-------0--0--0------0--0--0--------------|
E|--------------------------------------------------------------------|

CHORUS:

e|--x-x-x-x-x-x-x-x-x-x-x-x-x-x-x-x-----------------------------------|
B|--x-x-x-x-x-x-x-x-x-x-x-x-x-x-x-x-----------------------------------|
G|--x-x-x-x-x-x-x-x-x-x-x-x-x-x-x-x----------------(x3)---------------|
D|--x-x-x-x-x-x-x-x-x-x-x-x-x-x-x-x-----------------------------------|
A|--x-x-x-x-x-x-x-x-x-x-x-x-x-x-x-x-----------------------------------|
E|--x-x-x-x-x-x-x-x-x-x-x-x-x-x-x-x-----------------------------------|
     Everybody Knows

e|--------------------------------------------------------------------|
B|--------------------------------------------------------------------|
G|------------------7-7-7-7-7-7-7-7----7---7-7---7-7------------------|
D|----------------s-7-7-7-7-7-7-7-7----7---7-7---7-7----(Gets louder)-|
A|------------------5-5-5-5-5-5-5-5----5---5-5---5-5------------------|
E|--------------------------------------------------------------------|
  We’re gonna die in this town



e|--------------------------------------------------------------------|
B|--------------------------------------------------------------------|
G|------4-4---8--8---6-6---------4-4---8--8---6-6---------------------|
D|--4---4-4---8--8---6-6-----4---4-4---8--8---6-6---------------------|
A|--4---2-2---6--6---4-4-----4---2-2---6--6---4-4---------------------|
E|--2------------------------2----------------------------------------|
   Everybody Knows          Everybody Knows

e|--------------------------------------------------------------------|
B|--------------------------------------------------------------------|
G|------4-4----8--8---6-6---------------------9-9-9-9-9-9-9-9---------|
D|--4---4-4----8--8---6-6-------------------s-9-9-9-9-9-9-9-9---------|
A|--4---2-2----6--6---4-4---------------------7-7-7-7-7-7-7-7---------|
E|--2-----------------------------------------------------------------|
   Everybody   knows   We’re gonna die in this town.     

e|--------------------------------------------------------------------|
B|--------------------------------------------------------------------|
G|---4----4-4-4----4-4-4----------------------------------------------|
D|---4----4-4-4----4-4-4----------------------------------------------|
A|---2----2-2-2----2-2-2----------------------------------------------|
E|--------------------------------------------------------------------|

After Chorus:


e|--------------------------------------------------------------------|
B|--------------------------------------------------------------------|
G|-----------4--4----x-x-x----8--8----6--6---x-x-x--------------------|
D|---4--4----4--4----x-x-x----8--8----6--6---x-x-x--------(x3)--------|
A|---4--4----2--2----x-x-x----6--6----4--4---x-x-x--------------------|
E|---2--2-------------------------------------------------------------|



e|--------------------------------------------------------------------|
B|--------------------------------------------------------------------|
G|---------9-9-9-9-9-9-9-9--------4—-4—-4----4—-4—-4------------------|
D|-------s-9-9-9-9-9-9-9-9--------4—-4—-4----4—-4—-4------------------|
A|---------7-7-7-7-7-7-7-7--------2—-2-—2----2—-2-—2------------------|
E|--------------------------------------------------------------------|
          ^
(Slide down the 5th string here -3:07) 


Great song from their new Album, Radioactive.
Have fun playing it [:

            
            
Suggest correction
Creating personal tab
Creating personal tab
You can edit any tab online and save it as your Personal.

You can edit, replace or remove any tab part or add personal notes – all changes will be seen only by you.

Personal tabs can be accessed anytime from any device, even offline.
Learn more »
comments
print report bad tab
4 comments total. Showing first comments.
0 reply
TORRESSS 10 Aug 19, 2008 03:41 PM

yesssss bruv

0 reply
likesincakola 10 Oct 17, 2008 10:13 PM

hey can this also be played on the acoustic?

0 reply
lééti 597 Nov 03, 2008 10:29 AM

you made a few little mistakes on the solo, it should be like this (sorry if it gets messed up):

e|---------------------------------------------------|
B|--7b9r-5-7s9\--9h10p9------9-----------------------|
G|----------------------11-9-------------------------|
D|-----------------------------9-9-(9)--9h11p9--11\--|
A|---------------------------------------------------|
E|---------------------------------------------------|

e|--------------------------s14-12--12h14-16—17-16-14-16----------|
B|--5-7b9r-5-7s9--s14-12-14------------------------------12---12--|
G|----------------------------------------------------------------|
D|----------------------------------------------------------------|
A|----------------------------------------------------------------|
E|----------------------------------------------------------------|

and if you see danny play it live and the end of the solo isn't tapped. except this... perfect.

guest
You may want to rate the tab now too:
select rating
Wanna post a correction for this tab? Suggest correction