Oops, an error
Loading. Please wait.

Five Colours In Her Hair bass

version 2
version 2

Whole song

Interactive

by McFly
5,784 views 3 this week
2 commentsread comments
1 2 3 4 5
x 3
add to favorites
×
Save as Personal and add changes to this tab that will be seen only by you. Learn more ›
×
You can save this tab as Personal to edit and correct it or add notes. All changes will be seen only by you. Learn more »
launch autoscroll
font size
0
reset
guitar tuner
edit
Autoscroll
slow
fast
+/-
esc
set tempo
stop
McFly
5 Colours In Her Hair (Bass)
Tuning: Standard
Transcribed by Soch Hean

Intro:
|----------------------------------------------------------------------|
|----------------------------------------------------------------------|
|------------------------8-9-10-10-8-10-8-----------------8-9-10-10-8--|
|-3-1-3-3--6-7-8-6-8--10------------------10-9-8--6-8--10--------------|

|-----------------------------------------|
|-----------------------------------------|
|-10-8-----------------5555555555555555---|
|------10-9-8--6-8------------------------| 
(x2)

Verse:
|-------------------------------------------------------------|
|-------------------------------------------------------------|
|----------------------------------------------5--5-5-5-5-----|
|-3-----1--1-1-1-1-3--3-3-1-1-3-----1--1-1-1-1----------------|

|---------------------------------------------------|
|---------------------------------------------------|
|------------------------------------33333333--5----|
|-3333333333333333-11111111-33333333----------------|

Chorus:
|-----------------------------------------------------------------|
|-----------------------------------------------------------------|
|-------------------33333333-55555555-------------------33333333--|
|-33333333-00000000-------------------33333333-00000000-----------|

|-------------------------------------------------------------|
|----------------------------99999999-------------------------|
|-55555555-33333333-55555555----------77777777-33333333--5\---|
|-------------------------------------------------------------|

___________________
|---------------------------|
|---------------------------|
|---------------------------|
|-3--1--3-3--3--1--3-3-1-1--|
___________________

Verse 2:
|-------------------------------------------------------------|
|-------------------------------------------------------------|
|----------------------------------------------5--5-5-5-5-----|
|-3-----1--1-1-1-1-3--3-3-1-1-3-----1--1-1-1-1----------------|

|---------------------------------------------------------------------------|
|---------------------------------------------------------------------------|
|------------------------------------33333333-3s15-15-15-15-15-15-15-15-15\-|
|-3333333333333333-11111111-33333333----------------------------------------|

|-----------------------------------------|
|-----------------------------------------|
|-55555555-5s17-17-17-17-17-17-17-17-17\--|
|-----------------------------------------|


[Play Chorus]

Bass Part leading to Bridge:
|--------------------|
|--------------------|
|-------------9------|
|-3------------------|

Bridge:
|--------------------------------------------------------------|
|-----------9-----9--7-----7-----12---------7---------7--------|
|-7--9--11----11--------7-----10-----10--8-----10--8-----10--8-|
|--------------------------------------------------------------|

(Then she went insane...)
|--------------------------------------------------------|
|--------------10----12-12-----------------10----12-12---|
|-10----7-7-------------------10----7-7------------------|
|--------------------------------------------------------|

|--------------------------------------------------|
|-10----12-12-----------2--------------------10----|
|-----------------2---------5---3------------------|
|--------------------------------------------------|

Interlude:
|----------------------------------------------------------------------|
|----------------------------------------------------------------------|
|-------------------------8-9-10-10-8-10-8-----------------8-9-10-10-8-|
|-3-1-3-3--6-7-8--6-8--10------------------10-9-8--6-8--10-------------|

|-----------------------------------------|
|-----------------------------------------|
|-10-8-----------------5555555555555555---|
|------10-9-8--6-8------------------------|

Chorus:
|-----------------------------------------------------------------|
|-----------------------------------------------------------------|
|-------------------33333333-55555555-------------------33333333--|
|-3--------0--------------------------33333333-00000000-----------|

|-----------------------------------99--------------------|
|----------------------------999999-----------------------|
|-55555555-33333333-55555555-----------77777777-33333333--|
|---------------------------------------------------------|

|---------------|
|---------------|
|-55555555------|
|-----------3---|

Outro: (Do do do do do...)
|---------------------------------------------------------------------|
|---------------------------------------------------------------------|
|------------------------8-9-10-10-8-10-8----------------8-9-10-10-8--|
|-3-1-3-3--6-7-8-6-8--10------------------10-9-8-6-8--10--------------|

|---------------------------|
|---------------------------|
|-10-8----------------------|
|------10-9-8-6-8-------3---|
Suggest correction
Creating personal tab
Creating personal tab
You can edit any tab online and save it as your Personal.

You can edit, replace or remove any tab part or add personal notes – all changes will be seen only by you.

Personal tabs can be accessed anytime from any device, even offline.
Learn more »
Give kudos to tab author, rate the tab!
1 2 3 4 5
comments
print report bad tab
2 comments total.
+1 reply
noobboyy 41 Nov 30, 2007 05:03 AM

your tabs all always accurate!
good work! ((:

0 reply
robotfrom94 314 Apr 06, 2013 04:16 AM

Correct, but i find it easier to travel between strings than along the fretboard
e.g. instead of using the 6,7 and 8 frets on the E string, using 1,2 and 3 on the A
makes it much more ergonomic to play

guest
You may want to rate the tab now too:
select rating
Wanna post a correction for this tab? Suggest correction