Oops, an error
Loading. Please wait.

Five Colours In Her Hair bass

version 3
version 3

Whole song

Interactive

by McFly
94 views 1 this week
no commentswrite comment
1 2 3 4 5
2 more votes to show rating
add to favorites
×
Save as Personal and add changes to this tab that will be seen only by you. Learn more ›
×
You can save this tab as Personal to edit and correct it or add notes. All changes will be seen only by you. Learn more »
launch autoscroll
font size
0
reset
guitar tuner
edit
Autoscroll
slow
fast
+/-
esc
set tempo
stop
Author
Intro:
G|------------------------------------------------------------------------------------------------|x2
D|--------------------0-3-4-5-5-3-5-3-----------0-3-4-5-5-3-5-3-----------------------------------|
A|--------1-1-2-3-1-3-----------------5-4-3-1-3-----------------5-4-3-1-3-1-3-4-5555555555555555--|
E|-3-1-3------------------------------------------------------------------------------------------|

Verse 1:
G|---------------------------------------------------------|
D|---------------------------------------------------------|
A|------------------------------------------------5-55-555-|
E|-3--------1--11-111---3-33-3333--------1-11-111----------|

G|--------------------------------------------------|
D|--------------------------------------------------|
A|---------------------------------------33333333-5-|
E|-3-33-333-3-33-333--1-11-111--3-33-333------------|

Chorus:
G|-------------------------------------|x2  |-------------------------------------------------|
D|-------------------------------------|    |-------------------------------------------------|
A|-------------------3-33-333-5-55-555-|    |--3-33-333-5-55-555-2-22-222----------3-33-333-5-|
E|-3-33-333-0-00-000-------------------|    |-----------------------------0-00-000------------|

G| ---------------------|
D|----------------------|
A|----------------------|
E|--3-1-3-3333-1-3-333--|

Verse 2:
G|-----------------------------------------------------|
D|-----------------------------------------------------|
A|--------------------------------------------5-55-555-|
E|-3------1-11-111---3-33-3333-------1-11-111----------|

G|---------------------------------------| |------------------|
D|---------------------------------------| |------------------|
A|---------------------------------------| |-3333-x4 -5555-x4-|
E|-3-33-333-3-33-333--1-11-111--3-33-333-| |------------------|

Chorus:
G|-------------------------------------|x2  |------------------------------------------------|
D|-------------------------------------|    |------------------------------------------------|
A|-------------------3-33-333-5-55-555-|    |-3-33-333-5-55-555-2-22-222----------3-33-333-5-|
E|-3-33-333-0-00-000-------------------|    |----------------------------0-00-000------------|
  
Bridge:
G|--------------------------------------------------------------------------------|
D|--------------------------------------------------------------------------------|
A|---------------------------------------0-00-000---------------------------------|
E|-3-33-333-3333-2222--0-00-000-0-00-000----------3-33-333--1-11-111-1-11-111-1---|

But then she went insane...
G|---------------------------| x2  |---------------------------------------|
D|---------------------------|     |---------------------------------------|
A|--------------3-3--3-5555--|     |-3-3--3-5-5--5-2-2--2-7-5-3-------3----|
E|-3-3--3-000-0--------------|     |---------------------------------------|

Join here at 2:13
G|--------------------------------------------------|
D|0-3-4-5-5-3-5-3-----------------------------------|
A|----------------5-4-3-1-3-1-3-4-5555555555555555--|
E|--------------------------------------------------|

Chorus:
G|-----------------------------------------------------------------------|
D|-----------------------------------------------------------------------|
A|------------3-33-333--5-55-555--------------------3-33-333--5-55-555---|
E|----3---0----------------------3-33-333--0-00-000----------------------|

G|---------------------------------------------------------------|
D|---------------------------------------------------------------|
A|--3-33-333--5-55-555--2-22-222----------3-33-333--5-55-555-----|
E|-------------------------------0-00-000--------------------3---|

Outro:
G|--------------------------------------------------------------------------------|
D|--------------------0-3-4-5-5-3-5-3-----------0-3-4-5-5-3-5-3-------------------|
A|--------1-1-2-3-1-3-----------------5-4-3-1-3-----------------5-4-3-1-3-1-3-4---|
E|-3-1-3------------------------------------------------------------------------3-|


Do do do do do do
Do do do do do do
Do do do do do do

Shes got a lip ring
And 5 colours in her hair
Not into fashion
But I love the clothes she wears
Her tatoos always hidden by her underwear
She don't care

Everybody wants to know her name
I threw a house party and  she came
Everyone asked me
Who the hell is she
That weirdo with 5 colours in her hair

Shes just a loner
With a s*** attitude
I'd like to phone her
Cuz she puts me in the mood
They're rumours spreading round
That she cooks in the nude
But she don't care
She don't care

Everybody wants to know her name
How does she cope with her new found fame
Everyone asked me
Who the hell is she
That weirdo with 5 colours in her hair

She was all I thought about
The girl I cannot live without
But then she went insane
She couldn't take the fame
She said I was to blame
She'd had enough
And shaved 5 colours off and now
Shes just a weirdo with no name

Everybody wants to know her name
How could she cope with her new found fame
Everyone asked me
Who the hell is she
That weirdo with 5 colours in her hair

1 2 3 4!

Do do do do do    do
Do do do do do    do
Do do do do do    do
Dooooooooooooo...
Suggest correction
Creating personal tab
Creating personal tab
You can edit any tab online and save it as your Personal.

You can edit, replace or remove any tab part or add personal notes – all changes will be seen only by you.

Personal tabs can be accessed anytime from any device, even offline.
Learn more »
Give kudos to tab author, rate the tab!
1 2 3 4 5
comments
print report bad tab
guest
You may want to rate the tab now too:
select rating
Wanna post a correction for this tab? Suggest correction