Oops, an error
Loading. Please wait.

Friday Night tab

version 1
version 1

Whole song

Interactive

by McFly
9,323 views 9 this week
1 commentread comment
1 2 3 4 5
x 4
add to favorites
×
Save as Personal and add changes to this tab that will be seen only by you. Learn more ›
×
You can save this tab as Personal to edit and correct it or add notes. All changes will be seen only by you. Learn more »
launch autoscroll
font size
0
reset
how to read this tab
guitar tuner
edit
Autoscroll
slow
fast
+/-
esc
set tempo
stop
McFly
Friday Night
Transcribed by Soch Hean

Album: Motion In The Ocean

Capo 2nd Fret 


Intro Riff: (Relative to Capo)
  D                        D/F#       G
|----------------------------------------------------------|
|-3-3-3-3--3-3-3-3--3-3-3---3-3-3-3------------------------|
|-2-2-2-2--2-2-2-2--2-2-2---2-2-2-2---0-0-0-0--------------|
|-0-0-0-0--0-0-0-0--0-0-0---0-0-0-0---0-0-0-0--------------|
|---------------------------x-x-x-x---2-2-2-2----2-2---2---|
|---------------------------2-2-2-2---3-3-3-3----0-0-3-0---| (x2)

(Chords relative to capo)

Verse:
D
Sleeping through the day 'cause I work all night
D/F#                        G
Get out the way things are coming a-live
D
Look over there, another fight
D/F#                              G
I guess I should've have seen the warning signs


Chorus: (Play main riff)
D
We could be together (Im not looking for a fight)
D/F#              G
Change the world forever (just wanna make it through the night)
D                                                    D/F#                   G
Make it all seem better (they're really giving me the eye-ey-eye-ey-eye-ey-eye)



Think Im gonna lose it, lose it, lose it
Think Im gonna lose it, lose it, lose it

|----------------------------------------------------------------------|
|-------------3-3-3-3--3-3-3-3--3-3-3---3-3-3-3------------------------|
|-------------2-2-2-2--2-2-2-2--2-2-2---2-2-2-2---0-0-0-0--------------|
|-------------0-0-0-0--0-0-0-0--0-0-0---0-0-0-0---0-0-0-0--------------|
|-2-2---2-------------------------------x-x-x-x---2-2-2-2----2-2---2---|
|-0-0-3-0-------------------------------2-2-2-2---3-3-3-3----0-0-3-0---|

Think Im gonna lose it


Verse 2:
D
The walls are growing ears, Im paranoid
D/F#                      G
No need to fear what you cant avoid
D
Dont let 'em in, dont let 'em out
D/F#                             G
I'll give you something you can scream about



Chorus: (Play main riff)
D
We could be together (Im not looking for a fight)
D/F#              G
Change the world forever (just wanna make it through the night)
D                                                    D/F#                   G
Make it all seem better (they're really giving me the eye-ey-eye-ey-eye-ey-eye)


Think Im gonna lose it, lose it, lose it
Think Im gonna lose it
|-2-2-2--------|
|-3-3-3--------|
|-2-2-2--------|
|-0-0-0--------|
|--------------|
|--------------|
Think Im gonna lose it, lose it, lose it
                    A
Think Im gonna lose it



Bridge: (riffs not relative to capo)
Bm             G                     A
No, no, no, nothing's wrong with dreaming
|------------------------------------|
|-16b17r-----------------------------|
|--------16----16-17b18-17b18--------|
|-----------16-----------------------|
|------------------------------------|
|------------------------------------|
Bm                  G           A
Go, go, go you're dreaming all away
|-----------------------------------|
|-16b17r-17-19-16--20b21-20b21=-----|
|-----------------------------------|
|-----------------------------------|
|-----------------------------------|
|-----------------------------------|
Bm         G        A
One love, one life, and thats enough to get you through the night
|------------------------------------|
|-16b17r-----------------------------|
|--------16----16-17b18-17b18--------|
|-----------16~----------------------|
|------------------------------------|
|------------------------------------|
Bm               G             A
Tomorrow's gonna be a brighter day
A
Hey, hey, hey



Think Im gonna lose it, lose it, lose it
Think Im gonna lose it
|-2-2-2--------|
|-3-3-3--------|
|-2-2-2--------|
|-0-0-0--------|
|--------------|
|--------------|
Think Im gonna lose it, lose it, lose it
Think Im gonna lose it
|-2-2-2--------|
|-3-3-3--------|
|-2-2-2--------|
|-0-0-0--------|
|--------------|
|--------------|
(x2)


Chorus: (Play main riff)
D
We could be together (Im not looking for a fight)
D/F#              G
Change the world forever (just wanna make it through the night)
D                                                      A
Make it all seem better (they're really giving me the eye)


Bridge: (riffs not relative to capo)
Bm             G                     A
No, no, no, nothing's wrong with dreaming
|------------------------------------|
|-16b17r-----------------------------|
|--------16----16-17b18-17b18--------|
|-----------16-----------------------|
|------------------------------------|
|------------------------------------|
Bm                  G           A
Go, go, go you're dreaming all away
|-----------------------------------|
|-16b17r-17-19-16--20b21-20b21=-----|
|-----------------------------------|
|-----------------------------------|
|-----------------------------------|
|-----------------------------------|
Bm         G        A
One love, one life, and thats enough to get you through the night
|-----------------------------------|
|-16b17r-17-17s19--17-16------------|
|------------------------18---------|
|-----------------------------------|
|-----------------------------------|
|-----------------------------------|
Bm               G             A
Tomorrow's gonna be a brighter day
|--------------------------------------------------------|
|-5s==17-17-17-16-16-16----------------------------------|
|-----------------------16-16-16-------------------------|
|--------------------------------16-16-16-16-16-16-16----|
|--------------------------------------------------------|
|--------------------------------------------------------|
A
Hey, hey, hey
|--------------------------------------------------------|
|-----17-17-17-16-16-16----------------------------------|
|-----------------------16-16-16-------------------------|
|--------------------------------16-16-16-16-16-16-16----|
|--------------------------------------------------------|
|--------------------------------------------------------|


Outro:
D
They come alive when I work the nights
D
I guess I should've seen the warning signs


Chords:
D:     xx0232
D/F#:  2x0232
G:     320033
A:     x02220
Bm:    x24432

            
            
Suggest correction
Creating personal tab
Creating personal tab
You can edit any tab online and save it as your Personal.

You can edit, replace or remove any tab part or add personal notes – all changes will be seen only by you.

Personal tabs can be accessed anytime from any device, even offline.
Learn more »
comments
print report bad tab
1 comment total.
0 reply
footyfandan 43 Dec 30, 2006 12:12 PM

So how are you playing D/F#?

guest
You may want to rate the tab now too:
select rating
Wanna post a correction for this tab? Suggest correction